Anti-flag — I Dont Believe

Anti-Flag:
I Don't Believe
tabbed by: intense@westol.com

this is tabbed in normal antiflag tuning (half step down). if you're
regular tuning, just play everything one fret lower than what it says
on this tab

Intro:
Gb----------
Db----------
Ab-------7--
Eb-0--------

Pre-verse:
Gb-------------------------------------------9-9-9-9-9-7-9-9-7-7---------
Db---------------------------9-9-9-9-9-9-9-9---------------------9-9-7-7-
Ab-7-7-7-7-7-7-7-7-7-7-7-7-7---------------------------------------------
Eb-----------------------------------------------------------------------

Verse:
Gb-------------9-9-
Db-----9-9---------
Ab-7-7-----7-7----- (6x)
Eb-----------------

then

Gb-----------------------------7-7-9-9-
Db---------------7-7-9-9-10-10---------
Ab-7-7-9-9-10-10-----------------------
Eb-------------------------------------

1st Chorus:
Gb-------------5-5-5-5-5-5-------------------------
Db-------------------------------------7-7-7-7-7-7-
Ab-3-3-3-3-3-3-------------------------------------
Eb-------------------------5-5-5-5-5-5-------------

then

Gb-------------5-5-5-5-5-5-------------------------
Db-------------------------------------------------
Ab-3-3-3-3-3-3-------------------7-7-7-------7-7-7-
Eb-------------------------5-5-5-------5-5-5-------

2nd Chorus:
Gb-------------5-5-5-5-5-5-------------------------
Db-------------------------------------7-7-7-7-7-7-
Ab-3-3-3-3-3-3-------------------------------------
Eb-------------------------5-5-5-5-5-5-------------

then

Gb-------------5-5-5-5-5-5---------------
Db---------------------------------------
Ab-3-3-3-3-3-3-------------------7-7-7---
Eb-------------------------5-5-5-------5-

Bridge Part1:
Gb---------------------
Db-------------------9-
Ab-5-----------5-------
Eb-------7-------------

Bridge Part2:
Gb-------------------------------------------------
Db-5-5-5-5-5-5-4-4-4-4-4-4-2-2-2-2-2-2-------------
Ab-------------------------------------2-2-2-2-2-2-
Eb-------------------------------------------------

then

Gb-------------------------------------------------
Db-5-5-5-5-5-5-7-7-7-7-7-7-9-9-9-9-9-9-7-9-9-9-9-9-
Ab-------------------------------------------------
Eb-------------------------------------------------

Bridge Part3:
Gb-----7-7-5-5---------6-6-4-4---------4-4-2-2-------------2-2-4-4-
Db-5-5---------7-7-4-4---------6-6-2-2---------4-4-----4-4---------
Ab-------------------------------------------------2-2-------------
Eb-----------------------------------------------------------------

then

Gb-----7-7-5-5---------6-6-4-4-----9-9-7-7-------------------------
Db-5-5---------7-7-4-4---------6-6---------9-9-7-7-9-9-7-7---------
Ab---------------------------------------------------------9-9-7-7-
Eb-----------------------------------------------------------------

Bridge Part4:
Gb-----------------------------------------------------------------
Db-5-5-5-5-5-5-5-5-4-4-4-4-4-4-4-4-2-2-2-2-2-2-2-2-----------------
Ab-------------------------------------------------2-2-2-2-2-2-2-2-
Eb-----------------------------------------------------------------

Bridge Part5:
Gb-----------------------------------------------------------------
Db-5-5-5-5-5-5-5-5-4-4-4-4-4-4-4-4-7-7-7-7-7-7-7-7-9-9-9-9-9-9-9-9-
Ab-----------------------------------------------------------------
Eb-----------------------------------------------------------------

Bridge Part6:
Gb---------------------
Db-5-----4-----2-------
Ab-------------------2-
Eb---------------------

Bridge Part7:
Gb---------------------
Db-5-----4-----7-----9-
Ab---------------------
Eb---------------------

Order Of Song:
Intro
Pre-Verse
Verse
1st Chorus
Pre-Verse
Verse
2nd Chorus
Bridge Part1
Bridge Part2
Bridge Part3
Bridge Part4
Bridge Part5
Bridge Part4 (2x)
Bridge Part5
Bridge Part4
Bridge Part6 (2x)
Bridge Part7
Bridge Part6
Bridge Part7