Anti-flag — Indie Sux Hardline Sux Emo Sux You Suck

На этой странице Вы можете ознакомиться с 2 версиями подбора аккордов для гитары к песне "Indie Sux Hardline Sux Emo Sux You Suck" группы (исполнителя) "Anti-flag".

e---------------------| 
B---------------------|
G----------88888888---| (x2)
D-88888888-88888888---|
A-88888888-66666666---|
E-66666666------------|

e-------------------------------|
B-------------------------------|
G-------------3-----------------| (x2)
D-8888888-5-3-------------------|
A---------------6666666-5-3-----|
E---------------------------6---|

e---------------------|
B---------------------|
G----------88888888---| (x2)
D-88888888-88888888---|
A-88888888-66666666---|
E-66666666------------|

e---------------------|
B---------------------|
G-55555555-88888888---| (x1)
D-55555555-88888888---|
A-33333333-66666666---|
E---------------------|

e-------------------|
B-------------------|
G-----888-555--88---| (x2)
D-888-888-555--88---|
A-888-666-333--66---|
E-666---------------|

e-------------------------------|
B-------------------------------|
G-------------3-----------------| (x2)
D-8888888-5-3-------------------|
A---------------6666666-5-3-----|
E---------------------------6---|

e---------------------|
B---------------------|
G----------88888888---| (x2)
D-88888888-88888888---|
A-88888888-66666666---|
E-66666666------------|

e---------------------|
B---------------------|
G-55555555-88888888---| (x1)
D-55555555-88888888---|
A-33333333-66666666---|
E---------------------|

e-------------------|
B-------------------|
G-----888-555--88---| (x2)
D-888-888-555--88---|
A-888-666-333--66---|
E-666---------------|

e---------------|
B---------------|
G-----------8---| (x1)
D-88888888--8---|
A-88888888--6---|
E-66666666------|

e------------|
B------------|
G------------| (x1)
D-88888888---|
A-88888888---|
E-66666666---|

e---------------------|
B---------------------|
G----------88888888---| (x4)
D-88888888-88888888---|
A-88888888-66666666---|
E-66666666------------|

e--------------|
B--------------|
G-55555555-8---| (x1)
D-55555555-8---| hold last chord thru pause
A-33333333-6---|
E--------------|

(boo hoo hoo my girlfriend dumped me...)

e-------------------|
B-------------------|
G-----888-555--88---| (x4)
D-888-888-555--88---|
A-888-666-333--66---|
E-666---------------|
Anti-Flag
Indie sux, hardline sux, emo sux, you suck!
Tabbed by: intense@westol.com

this is tabbed in normal antiflag tuning (half step down). if you're
regular tuning, just play everything one fret lower than what it says
on this tab

Intro:
Gb-----------------------------------------------------------
Db-----------------------------------------------------------
Ab---------------------7-7-7-7-7-7-7-7-7-7-------------------
Eb-7-7-7-7-7-7-7-7-7-7---------------------------------------

Verse:
Gb------------------------------------
Db-------------------9-7-9---9-7-9----
Ab---9-7-----9-7---7-------7----------
Eb-7-----9-7-----9--------------------

Prechorus:
Gb---------------------------------
Db---------------------------------
Ab-4-4-4-4-4-4-4-4-7-7-7-7-7-7-7-7-
Eb---------------------------------

Chorus:
Gb-----------------------------------------------------------------
Db-----------------------------------------------------------------
Ab-----------------7-7-7-7-7-7-7-7-4-4-4-4-4-4-4-4-7-7-7-7-7-7-7-7-
Eb-7-7-7-7-7-7-7-7-------------------------------------------------

Pre2ndverse:
Gb---------------------------------
Db-------------------9-7-9---9-7---
Ab-----------------7-------7-----9-
Eb-7-7-7-7-7-7-7-7-----------------

Bridge or whatever: High note on the bridge:
Gb----------------------------------- G----
Db----------------------------------- D-14-
Ab-----------------7-7-7-7-7-7-7-7-4- A----
Eb-7-7-7-7-7-7-7-7------------------- E----