Anti-flag — Mind The Gatt

Song: Mind the G.a.t.t. 
Artist: Anti-Flag
Album: The Terror State
Tuning: EADG
~ = Ring out / = slide

This song was tabbed out with help from my teacher, so I thinks it 100%.

Intro:
G|------------------|
D|------------------|
A|-444-000----------| x4
E|----------000-000-|

Verse1:
G|---------------------|
D|-----------------212-|
A|-4474-4474-0040-2----| x2
E|---------------------|

Verse2:
G|------------------------------------------------------|
D|-----------------212----------------------------------|
A|-4474-4474-0040-2-----0-0-0-0-7-6-4-0-----------------| x1
E|---------------------------------------0-0-0-0--0-2/4-|

Verse1: x3

Verse2: x1

Pre-Chorus
G|-----------------|
D|-----------------|
A|-4~---0~------2~-| x2
E|----------0~-----|

Chorus
G|--------------------------------|
D|--------------------------------|
A|-444444--000000----------222222-| x2
E|-----------------000000---------|



Bridge
G|------------------------------------|
D|-----------------212----------------|
A|-4474-4474-0040-2-----4474-4474-0~--|
E|------------------------------------|

Verse1: x2

Verse2: x1

Verse1: x2

Verse2: x1

Pre-Chorus: x2

Chorus: x2

Solo:
G|--------------------------------|
D|--------------------------------|
A|-44--------------44----------77-| x2
E|-----9/5-55-00-------9/5-55-----|

Verse3:
G|-------------------|
D|-------------------|
A|-44---00--------00-| x2
E|-----------99------|

Verse4:
G|----------------------------|
D|----------------------------|
A|-44444-00000---------00000--|
E|--------------99999---------|

Outro:
G|-------------|
D|-------------|
A|-4~--0~------|
E|---------0~--|