Anti-flag — Police Story

На этой странице Вы можете ознакомиться с 3 версиями подбора аккордов для гитары к песне "Police Story" группы (исполнителя) "Anti-flag".

Anti Flag
Police Story
Bass Tab
Tabbed by: punknoodles
E-Mail: PunKNooDLeS182

Theres already a version of this on the
site... This is quite similar, but it's
more detailed compared the the song.
Such as strumming... I think it's
highly accurate... If you have a
problem with it, please give me an
E-Mail to the E-Mail on the top.
Enjoy!



Intro X3 (odd rythm, listen to song)
|G|-------------------------------------|
|D|-------------------------------------|
|A|-44-4-44-4-----------22-2-22-2-------|
|E|-----------55-5-44-4-----------000222|

Continued...
|G|-------------------------------------|
|D|-------------------------------------|
|A|-44-4-44-4-----------77-7-77-7-------|
|E|-----------55-5-44-4-----------777777|


Verse 1 X1 (stum)
|G|-------------------------------|
|D|-------------------------------|
|A|-44-2-44---77-----66---22-0-22-|
|E|---------5----5-4----4---------|

Continued...
|A|---22-----44---|
|E|-0----0-2----2-|


Verse 2 X2
|G|-----------------------------------|
|D|------------------4h6-666----------|
|A|-44-2-44---77-------------77777777-|
|E|---------5----5-4------------------|

Continued...
|E|-77777777-|


Bridge? X2
|G|-------------------------------------|
|D|-------------------------------------|
|A|-44444444----------22222222----------|
|E|----------55554444----------00002222-|


Chorus X4
|G|---------------------------------|
|D|---------------------99-----66---|
|A|-------------------7----7-4----4-|
|E|-44444444-77777777---------------|


From here

Intro X2
Verse X2
Bridge X2
Chorus X4
Alternative Chorus X4
Intro X4
Chorus X8

Alternative Chorus X4
|G|-------------------------------------|
|D|-------------44444444----------------|
|A|-----4-2------------------2-0--------|
|E|-444-----4-2----------000-----2-0----|

Continued...
|D|-22222222-|

When you play the intro here, don't play
the Continued... part at the top, just
keep playing the first part of the intro
over 4X...

End on a hard
|A|-4-|
Take back your rights!
Anti-Flag
Police Story
Tabbed by: intense@westol.com

this is tabbed in normal antiflag tuning (half step down). if you're
regular tuning, just play everything one fret lower than what it says
on this tab

Verse: This once again has many parts to it too, i have the order in
which they are played posted at the end of the tab

Part A:
Gb-------------------------------------------------
Db-------------------------------------------------
Ab-5-5-5-5-5-5-------------3-3-3-3-3-3-------------
Eb-------------6-6-6-5-5-5-------------1-1-1-3-3-3-

Gb-------------------------------------------------
Db-------------------------------------------------
Ab-5-5-5-5-5-5-------------8-8-8-8-8-8-------------
Eb-------------6-6-6-5-5-5-------------8-8-8-8-8-8-

Part B:
Gb-------------------------------------------------
Db-------------------------------------------------
Ab-5-5-3-5-5-5---8-----7---3-3-1-3-3-3---3-----5---
Eb-------------6---6-5---5-------------1---1-3---3-

Gb-------------------------------------------------
Db---------------------7---------------------------
Ab-5-5-3-5-5-5---8---------8-8-8-8-8-8-------------
Eb-------------6---6-5---5-------------8-8-8-8-8-8-

Part C:
Gb-------------------------------------------------
Db-------------------------------------------------
Ab-5-5-3-5-5-5---8-----7---3-3-1-3-3-3---3-----5---
Eb-------------6---6-5---5-------------1---1-3---3-

Gb-------------------------------------------------------
Db---------------------7-----------10-10-10-10-----------
Ab-5-5-3-5-5-5---8---------8-8-8-8-----------------------
Eb-------------6---6-5---5---------------------8-8-8-8-8-

Chorus:
Gb-------------------------
Db---------------10----7---
Ab-------------8---8-5---5- (3x)
Eb-5-5-5-8-8-8-------------

then

Gb---------------
Db---------------
Ab-------------8-
Eb-5-5-5-8-8-8---

Part D:
Gb-------------------------------------------------
Db-------------------------------------------------
Ab-5-5-3-5-5-5---8-----7---3-3-1-3-3-3---3-----5---
Eb-------------6---6-5---5-------------1---1-3---3-

Gb---------------------------
Db---------------------7-----
Ab-5-5-3-5-5-5---8---------8-
Eb-------------6---6-5---5---


Bridge:
Gb-------------------------------------------------
Db-------------5-5-5-5-5-5-------------3-3-3-3-3-3-
Ab-----5-3---------------------3-1----------------- (3x)
Eb-5-5-----5-3-------------1-1-----3-1-------------

then

Gb-------------------------------------------------5-5-5-5-5-5-
Db-------------5-5-5-5-5-5-------------3-3-3-3-3-3-------------
Ab-----5-3---------------------3-1-----------------------------
Eb-5-5-----5-3-------------1-1-----3-1-------------------------

Part E:
Gb-------------------------------------------------
Db-------------------------------------------------
Ab-5-5-5-5-5-5---8-----7---3-3-3-3-3-3---3-----5--- (2x)
Eb-------------6---6-5---5-------------1---1-3---3-

Part F:
Gb-------------------------------------------------
Db-------------------------------------------------
Ab-5-5-5-5-5-5---8-----7---3-3-3-3-3-3---3-----5---
Eb-------------6---6-5---5-------------1---1-3---3-

Gb---------------------------
Db---------------------7-----
Ab-5-5-5-5-5-5---8---------8-
Eb-------------6---6-5---5---


Order Of Song:
Part A
Part B
Part A
Part B
Part C
Chorus
Part A
Part B
Part D
Chorus
Bridge
Part A
Part E
Part F
Chorus
Anti-Flag - Police Story

Intro
e|----------------------------------------------------------------------|
B|----------------------------------------------------------------------|
G|-6-----------------------------------------666666---------444---------|
D|-6-Let Ring-----After a while, pick slide--666666-777-666-444-222-444-|
A|-4-----------------------------------------444444-777-666-222-222-444-|
E|--------------------------------------------------555-444-----000-222-|

e|---------------------------------9--9--9--9--9----------9-------------|
B|-----------------------------------9--9--9--9--------7----------------|
G|-666666---------999999--------6-----------------6--------------------6|
D|-666666-777-666-999999-999999-6-----------------6---------Pick slide-6|
A|-444444-777-666-777777-999999-4-----------------4--------------------4|
E|--------555-444--------777777-----------------------------------------|

|Chorus
e|--------------------|-------------------------------------------------|
B|--------------------|-------------------------------------------------|
G|------------------6-|666666---------444444---------666666-------------|
D|---BASS SOLO------4-|666666-777-666-444444-222-444-666666-777-666-----|
A|--------------------|444444-777-666-222222-222-444-444444-777-666-----|
E|--------------------|-------555-444--------000-222--------555-444-----|

Chorus ends|
e|---------------|-------------------------||-----9--9--9--9--9---------|
B|---------------|-------------------------||-------9--9--9--9----------|
G|-999999--------|----------999-666--------||-6-------------------6-----|
D|-999999-999999-|--666-999-999-666--repeat||-6-------------------6-----|
A|-777777-999999-|--666-999-777-444----4x--||-4-------------------4-----|
E|--------777777-|--444-777----------------||---------------------------|

e|----9-----------------------------------------------------------------|
B|-7--------------------------------------------------------------------|
G|-------------------6--------------------------------------------------|
D|-------Pick Slide--6---Bass Solo-----(Reapeat Chorus)-----------------|
A|-------------------4--------------------------------------------------|
E|----------------------------------------------------------------------|

e|----------------------------------------------------------------------|
B|----------------------------------------------------------------------|
G|------6666------4444------6666------4444-Repeat Palm Muted------------|
D|-6666-4444-2222-2222-6666-4444-2222-2222------------------------------|
A|-6666------2222------6666------2222-----------------------------------|
E|-4444------0000------4444------0000-----------------------------------|

e|----------------------------------------------------------------------|
B|-------------------------------------------7--5--4-----4---4----------|
G|-------------------------4-----4--6--4--6-----------6----6---6--4--6--|
D|-SOLO--------4--6--4--6-----6-----------------------------------------|
A|-------4--6-----------------------------------------------------------|
E|----------------------------------------------------------------------|

=BEND
e|-9-9-9-9-9-9-9-9-9-9-9-9-9-9-9---9-9-9-----------------------------|
B|-9-9-9-7-9-9-7-9-9-7-9-9-7-9-9--------------7-7-7------------------|
G|----------------------------------------------------------------------|
D|----------------------------------------------------------------------|
A|----------------------------------------------------------------------|
E|----------------------------------------------------------------------|

e|----------------------------------------------------------------------|
B|----------------------------------------------------------------------|
G|-66-666666-6-666666-6-666666-REPEAT A BUNCH OF TIMES-(PALM MUTED)-----|
D|----------------------------------------------------------------------|
A|----------------------------------------------------------------------|
E|----------------------------------------------------------------------|

e|-----------------------------||
B|-----------------------------||
B|---------999-666-------------||
D|-666-999-999-666-(REPEAT 8X)-||
A|-666-999-777-444-------------||
E|-444-777---------------------||