Anti-flag — Right To Choose

На этой странице Вы можете ознакомиться с 4 версиями подбора аккордов для гитары к песне "Right To Choose" группы (исполнителя) "Anti-flag".

Song: Right To Choose
Artist: Anti-Flag
Album: Mobilize
Tuning; EADG
Tabbed by: Dan Fling

/=slide

Intro: x2
G-----64----------64------------64---------------
D---------67----------67/9----------67-----------
A-44----------44------------44-------------------
E---------------------------------------7--5--4--

Verse: x2
play this on the second time
G-----------------------------------------------|------------
D-----------------------------------------------|------------
A-44----4-4---77----7-7-------------------------|------------
E-------------------------77----7-7---55----5-5-|--55555555--

Chorus: x1
G----------------------------------------
D----------------------------------------
A-44444444--77777777---------------------
E---------------------77777777--5555555--

Intro: x2
Verse1: x2
Chorus: x1
Intro: x2

Bridge: x1 listen for bass
play this on the second time
G----------------------------------------|-------------------
D----------------------------------------|-------------------
A-44444444--77777777---------------------|-------------------
E---------------------77777777-55555555--|---55--55--55--55--

Chorus: x2
Intro: x2

End
G---
D---
A-4-
E---
This is the inro/chorus from the right to choose on moblilize


e--------------------------------------------------
B--------------------------------------------------
G--------------------------------------------------
D-------12-11-12-11-12-11-12-11-12-11--------------
A-------------------------------------12-----------
E--------------------------------------------------

e--------------------------------------------------
B--------------------------------------------------
G--------------------------------------------------
D-------12-11-12-11-12-11-12-11-12-11-14-----------
A--------------------------------------------------
E--------------------------------------------------
-----------------------------------------------------------------------
Anti-Flag – The Right to Choose
-----------------------------------------------------------------------

Intro/Chorus Gtr. 1
e----------------------------------------------------------------------|
B--5-4-5-4-5-4-5-4-5-4-5-4-0--5-4-5-4-5-4-5-4-5-4-5-4-7----------------|
G----------------------------------------------------------------------|
D----------------------------------------------------------------------|
A----------------------------------------------------------------------|
E----------------------------------------------------------------------|

Intro/Chorus Gtr. 2
e----------------------------------------------------------------------|
B----------------------------------------------------------------------|
G--6----6-9-11--6-----------6----6-9-11--6-----------------------------|
D--6-7--6-9-11--6-7--9-7-6--6-7--6-9-11--6-7--9-7-6--------------------|
A--4-7--4-7--9--4-7--9-7-6--4-7--4-7--9--4-7--9-7-6--------------------|
E----5------------5--7-5-4----5------------5--7-5-4--------------------|

Verse
e----------------------------------------------------------------------|
B----------------------------------------------------------------------|
G--6-6--6--6--9-9--9--9------------------------------------------------|
D--6-6--6--6--9-9--9--9--9-9--9--9--7-7--7--7--------------------------|
A--4-4--4--4--7-7--7--7--9-9--9--9--7-7--7—-7--------------------------|
E------------------------7-7--7--7--5-5--5--5--------------------------|X2

Pre-Chorus Gtr. 1 / Gtr. 2 plays Verse
e----4-0-7-4-0-9-9-7-4-0-4-2-------------------------------------------|
B--2-------------------------5-4---------------------------------------|
G----------------------------------------------------------------------|
D----------------------------------------------------------------------|
A----------------------------------------------------------------------|
E----------------------------------------------------------------------|

Bridge Gtr. 1
e------44----|-740-740-740-54--740-740-7497-55-55-55-55----------------|
B--2----2----|----2---2---2--45---2---2--------------------------------|
G------------|---------------------------------------------------------|
D------------|---------------------------------------------------------|
A------------|---------------------------------------------------------|
E------------|---------------------------------------------------------|

Bridge Gtr. 2
e------------|---------------------------------------------------------|
B------------|---------------------------------------------------------|
G--6----6----|--6-----4--2--6-----4--2-2--2-2--2-2--2-2-2-2------------|
D--6----6----|--6--2--4--2--6--2--4--2-2--2-2--2-2--0-0-0-0------------|
A--4----4----|--4--2--2--0--4--2--2--0-0--0-0--0-0--0-0-0-0------------|
E------------|-----0-----------0---------------------------------------|
pm--------------------|

Pre Chorus 2 Gtr. 1 / Gtr. 2 plays Verse
e---------------------------740740747407407474074074-------------------|
B--2-54540-54547-54549-5454--------------------------------------------|
G----------------------------------------------------------------------|
D-----------------------------------------------------7-7-7-7-7-7-777--|
A-----------------------------------------------------7-7-7-7-7-7-777--|
E-----------------------------------------------------5-5-5-5-5-5-555--|

Intro
Verse
Pre-chorus 1
Chorus
Verse
Pre-chorus 1
Chorus
Bridge
Pre-Chorus 2
Chorus
Intro:
e|-------------------------------------------------------------
B|-------------------------------------------------------------
G|-6-6-6-6-9-9-9-9-9-9-9-9-9-----------------------------------
D|-6-6-6-6-9-9-9-9-9-9-9-9-9-----------------------------------
A|-4-4-4-4-7-7-7-7-6-6-6-6-7-----------------------------------
E|-------------------------------------------------------------

e|-------------------------------------------------------------
B|-------------------------------------------------------------
G|-6-6-6-6-9-9-9-9-9-9-9-9-9-----------------------------------
D|-6-6-6-6-9-9-9-9-9-9-9-9-9-----------------------------------
A|-4-4-4-4-7-7-7-7-6-6-6-6-7-----------------------------------
E|-------------------------------------------------------------

Verse:
e|-------------------------------------------------------------
B|-------------------------------------------------------------
G|--6-6--6--6--9-9--9--9--9-9--9--9--9-9--9--9-----------------
D|--6-6--6--6--9-9--9--9--9-9--9--9--9-9--9--9-----------------
A|--4-4--4--4--7-7--7--7--6-6--6--6--7-7--7--7-----------------
E|-------------------------------------------------------------

e|-------------------------------------------------------------
B|-------------------------------------------------------------
G|--6-6--6--6--9-9--9--9--9-9--9--9--9-9-9-9-9-9-9-9-----------
D|--6-6--6--6--9-9--9--9--9-9--9--9--9-9-9-9-9-9-9-9-----------
A|--4-4--4--4--7-7--7--7--6-6--6--6--7-7-7-7-7-7-7-7-----------
E|-------------------------------------------------------------


Pre-Chorus (your wave your flag.....):
e|-------------------------------------------------------------
B|-------------------------------------------------------------
G|--6----------------------------------------------------------
D|--6---------------------------------------Let-it-Ring--------
A|--4----------------------------------------------------------
E|-------------------------------------------------------------

Chorus(twice):

e|-------------------------------------------------------------
B|-------------------------------------------------------------
G|--6-6-6-6-9-9-9-9-9-9-9-9--9---------------------------------
D|--6-6-6-6-9-9-9-9-9-9-9-9--9---------------------------------
A|--4-4-4-4-7-7-7-7-6-6-6-6--7---------------------------------
E|-------------------------------------------------------------

e|-------------------------------------------------------------
B|-------------------------------------------------------------
G|--6-6-6-6-9-9-9-9-9-9-9-9--10--------------------------------
D|--6-6-6-6-9-9-9-9-9-9-9-9--10--------------------------------
A|--4-4-4-4-7-7-7-7-6-6-6-6--8---------------------------------
E|-------------------------------------------------------------


Bridge:
e|-------------------------------------------------------------
B|-------------------------------------------------------------
G|--6----------------------------------------------------------
D|--6---------------------------------------Let-it-Ring--------
A|--4----------------------------------------------------------
E|-------------------------------------------------------------

(It seems today, so be yourself....)
e|------------------------------------------------------------
B|------------------------------------------------------------
G|-6--6--6--6--9--9--9--9--9--9--9--9--9--9--9--9-------------
D|-6--6--6--6--9--9--9--9--9--9--9--9--9--9--9--9-------------
A|-4--4--4--4--7--7--7--7--6--6--6--6--7--7--7--7-------------
E|------------------------------------------------------------

(If you were half..)
e|------------------------------------------------------------
B|------------------------------------------------------------
G|-6--6--6--6--9--9--9--9--9--9--9--9--9--9--9--9-------------
D|-6--6--6--6--9--9--9--9--9--9--9--9--9--9--9--9-------------
A|-4--4--4--4--7--7--7--7--6--6--6--6--7--7--7--7-------------
E|------------------------------------------------------------

-----------------------------------------------
-----------------------------------------------
-6-6--6-6--6-6--6-6-6-6------------------------
-6-6--6-6--6-6--6-6-6-6------------------------
-4-4--4-4--4-4--4-4-4-4------------------------
-----------------------------------------------


(You wave your flag....)
e|------------------------------------------------------------
B|------------------------------------------------------------
G|-6--6--6--6--9--9--9--9--9--9--9--9--9--9--9--9-------------
D|-6--6--6--6--9--9--9--9--9--9--9--9--9--9--9--9-------------
A|-4--4--4--4--7--7--7--7--6--6--6--6--7--7--7--7-------------
E|------------------------------------------------------------



e|------------------------------------------------------------
B|------------------------------------------------------------
G|-6--6--6--6--9--9--9--9--9--9--9--9--9--9--9--9-------------
D|-6--6--6--6--9--9--9--9--9--9--9--9--9--9--9--9-------------
A|-4--4--4--4--7--7--7--7--6--6--6--6--7--7--7--7-------------
E|------------------------------------------------------------

-----------------------------------------------
-----------------------------------------------
-6-6--6-6--6-6--6-6-6-6------------------------
-6-6--6-6--6-6--6-6-6-6------------------------
-4-4--4-4--4-4--4-4-4-4------------------------
-----------------------------------------------