Anti-flag — Safe Tonight

На этой странице Вы можете ознакомиться с 2 версиями подбора аккордов для гитары к песне "Safe Tonight" группы (исполнителя) "Anti-flag".

Song: safe tonight
Band: ANTI-FLAG
Album: die for your government
tabbed by: Justin
the / means keep playing the note until the
switch.
enjoy!
Verse

G:------------------6-4-6-------------------------------------
D:--------------------------6-----------------------------------
A:--6/---2/---4-------------------4-6-4----------------------
E:---------------------------------------------------------------

chorus
G:---------------------------------------------------------------
D:---------------------------------------------------------------
A:--6/---2/---4/-----------------------------------------------
E:---------------4/---------------------------------------------

bridge
G:---------------------------------------------------------------
D:---------------------------------------------------------------
A:--2/---6/---2/---6/---4/---2/---1/---4/---2/---1/------
E:---------------------------------------------------------------

guitar intro
verse 6x
chorus 2x corrections,
questions to
verse 6x OuiOui7@aol.com
chorus 2x
bridge 1x
chorus 2x
verse 4x
chorus 4x
verse 2x
-------------------------------------------------------------------------------
SAFE TONIGHT - Anti-Flag
-------------------------------------------------------------------------------

safe tonight by anti-flag by nick at kingtaz88@aol.com

D# - B - C# - G#
e-------------------------------------------|
B-------------------------------------------|
G-------------------------------------------|
D-------------------------------------------|
A--6-6-6-6-6-8-9-8-6-4-6--4-6---------------|
E-------------------------------------------|