Anti-flag — School Of Assassins

-----------------------------------------------------------------------------
SCHOOL OF ASSASSINS - Anti-Flag
-----------------------------------------------------------------------------
Tabbed by: Tcurtis
Email: SuM41_RoX182@hotmail.com

Tuning: Standard

Intro:
e|--------------------------------------------------------------------------|
B|--------------------------------------------------------------------------|
G|--------------------------------------------------------------------------|
D|--------------------------------------------------------------------------|
A|--------------------------------------------------------------------------|
E|-6666666666666666--(harmonics)--------------------------------------------|

Intro 2/Post Chorus (Preverse)
e|--------------------------------------------------------------------------|
B|--------------------------------------------------------------------------|
G|--------101010101010-------8-8-8-8--------10101010101010------------------|
D|-555555-x-x-x-x-x-x-555555-x-x-x-x-555555-x-x-x-x-x-x-x--(cont. below)----|
A|-555555-8-8-8-8-8-8-555555-6-6-6-6-555555-8-8-8-8-8-8-8-------------------|
E|-333333-------------333333---------333333---------------------------------|

e|--------------------------------------------------------------------------|
B|--------------------------------------------------------------------------|
G|-7777/875-5555/653----------------------------------------------------|
D|-xxxx/xxx-xxxx/xxx----------------------------------------------------|
A|-5555/653-3333/431----------------------------------------------------|
E|--------------------------------------------------------------------------|

verse:
e|--------------------------------------------------------------------------|
B|--------------------------------------------------------------------------|
G|------8888----------------------------------------------------------------|
D|-5555-8888-8888-3333-101010101010101010101010-88h10p8---------------------|
A|-5555-6666-8888-3333-101010101010101010101010-----------------------------|
E|-3333------6666-1111-8-8-8-8-8-8-8-8-8-8-8-8------------------------------|
pm .... .... .... .... . . . . . . . . . . . .

Chorus:
e|--------------------------------------------------------------------------|
B|--------------------------------------------------------------------------|
G|-7-7777/87-7-7777/875-5-5555/653-3333/788---------------------------|
D|-x-xxxx/xx-x-xxxx/xxx-x-xxxx/xxx-xxxx/x/xx---------------------------|
A|-5-5555/65-5-5555/653-3-3333/431-1111/5/66---------------------------|
E|--------------------------------------------------------------------------|

Bridge:
e|--------------------------------------------------------------------------|
B|--------------------------------------------------------------------------|
G|--------------------------------------------------------------------------|
D|-5~-----------------------------------------------------------------------|
A|-5~-(hold-until-singing-starts-again)-(cont.-below)-----------------------|
E|-3~-----------------------------------------------------------------------|

e|--------------------------------------------------------------------------|
B|--------------------------------------------------------------------------|
G|--------------------------------------------------------------------------|
D|--5555555555555555-8888888888888888-5555555555555555-8888888888888888-----|
A|--5555555555555555-8888888888888888-5555555555555555-8888888888888888-----|
E|--3333333333333333-6666666666666666-3333333333333333-6666666666666666-----|
pm ................ ................ ................ ................

Ending
e|--------------------------------------------------------------------------|
B|--------------------------------------------------------------------------|
G|--------101010101010--------101010101010-------101010101010-------10-10-10
D|-555555-x-x-x-x-x-x--555555-x-x-x-x-x-x-555555-x-x-x-x-x-x-555555-x--x--x|
A|-555555-8-8-8-8-8-8--555555-8-8-8-8-8-8-555555-8-8-8-8-8-8-555555-8--8--8|
E|-333333--------------333333-------------333333-------------333333---------|


| / slide up
| slide down
| h hammer-on
| p pull-off

This song appears on the Fat Wreck Chords compilation ROCK AGAINST BUSH volume 1

BUY IT NOW!!!!!!!!!!!!