Anti-flag — Seattle Was A Riot

На этой странице Вы можете ознакомиться с 2 версиями подбора аккордов для гитары к песне "Seattle Was A Riot" группы (исполнителя) "Anti-flag".

SEATTLE WAS A RIOT - Anti-Flag


By: Dario Tessitore E-Mail: Fortyozcasualtys@aol.com

**********YOU MUST TUNE DOWN A HALF-STEP!!!**********

~=Hammer on for the one chorus note

INTRO
G|---------------------------------------------------------------------------|
D|---------------------------------------------------------------------------|
A|-2222222222222222-5555555555555555-0000000000000000-----------5555-0000----|
E|----------------------------------------------------3333-2222--------------|

INTRO CONTINUED
G|-------4-----------------4-------------------------------------------------|
D|---------------------------------------------------------------------------|
A|-2-----------2-----2-----------2-----2-----2-------------------------------|
E|-------------------------------------------------3---2---------------------|

VERSE
G|---4-2---2-------|-------------0-0-2---------------------------------------|
D|-------4---4-2-0-|---------0-4---------------------------------------------|
A|-2---------------|---2-5-2-------------------------------------------------|
E|-----------------|-3-------------------------------------------------------|

BREAK
G|------------------4--------------------------------------------------------|
D|--------------------4-0----------------------------------------------------|
A|-2-2-2-2-2-2-2-2-----------------------------------------------------------|
E|---------------------------------------------------------------------------|

CHORUS ??????
G|---------------4---|-------------------|------------------/---------------|
D|---------4-4-4---4-|---------7-5--4~5~4|---7-55--55-------/---------5-----|
A|-2-2-2-2-----------|-5-5-5-5-----------|-0-----77--77--55-/-----------5-5-|
E|-------------------|-------------------|-----------------3/-33333333------|

***I know this all seems complicated and all, but i mean your never gonna get
better at bass if you never try. This song gets kinda simple once you've mastered
it. GOOD LUCK!!***
Author/Artist: Anti-Flag 
Title: Seattle was a Riot
Album: Fat Music vol 5: Live Fat Die Young
Transcribed by: Derek Lapp
Email: heroin_bob68@hotmail.com

----------------16-9-13---16-9-13---------------------------------------------
-11-11----11-14---------9---------7-6-6-4-6---11----13--11---13--11---------3-
-------10---------------------------------------10----10--10---10--10---11----
------------------------------------------------------------------------------
------------------------------------------------------------------------------
------------------------------------------------------------------------------
Chords: (During Intro) 2nd half of intro starts here

------------------------------------------------------------------------------
------------------------------------------------------------------------------
------------------------------------------------------------------------------
-8--------------11-------------6--------------4-3-8---------------------------
-8--------------11-------------6--------------4-3-8---------------------------
-6-xxxxxxxxxxxx-9-xxxxxxxxxxxx-4-xxxxxxxxxxxx-2-1-6---------------------------
Verse:

------------------------------------------------------------------------------
------------------------------------------------------------------------------
---------------------6--------------------------------------------------------
--8--------------4---6--------------------------------------------------------
--8--------------4---4--------------------------------------------------------
--6-xxxxxxxxxxxx-2---4--------------------------------------------------------
Course:

------------------------------------------------------------------------------
------------------------------------------------------------------------------
-------------------6------10--13-8--------------------------------------------
--8---11--5----4-3-6-6---8--11--6--4----------8-------------------------------
--8---11--6----4-3-4-6---8--11--6--4----------8-------------------------------
--6---9---4----2-1---4---6--9---4--2-xxxxxxxx-6-----------------------------x-
back to snd half of intro

------------------------------------------------------------------------------
------------------------------------------------------------------------------
-------------6-----------6-10-8-10--------------------------------------------
-----8-8-8-4-6-----8-8-8-6-10-8-10--------------------------------------------
-----8-8-8-4-4-----8-8-8-4-8--6-8---------------------------------------------
-xxx-6-6-6-2---xxx-6-6-6------------------------------------------------------
ending