Anti-flag — Shes My Little Go Go Dancer

ANTI-FLAG
She's my little go go dancer
tabbed by: Steve Zomp (intense@westol.com)

Intro:
-----------------
-----------------
-6-6-----4-4----- play many of times
-----4-4-----6-6-


Pre 1st verse/chorus:
---------------------------------
-----5-5-6-6-8-8-----------------
-6-6-----------------5-5-6-6-8-8-
-----------------6-6-------------

---------------------------------
-----3-3-4-4-6-6-----------------
-4-4-----------------3-3-4-4-6-6-
-----------------4-4-------------

Verse:

-------------------------------------------------
-------------------------------------------------
-6-6-6-6-6-6-------------4-4-4-4-4-4-------------
-------------6-6-6-6-6-6-------------4-4-4-4-4-4-

after first chorus/before 2nd verse:
---------------------------6-6-4-4-3-3---------------
-----------------------------------------3-3-4-4-6-6-
-6-6-6-6-6-6-------------4---------------------------
-------------6-6-6-6-6-6---------------4-------------

Bridge:

---------------------------------
-----5-5-6-6-8-8-----------------
-6-6-----------------5-5-6-6-8-8-
-----------------6-6-------------
>(twice)
--------------------------------- /
-----3-3-4-4-6-6----------------- /
-4-4-----------------3-3-4-4-6-6- /
-----------------4-4------------- /

-----------------8-8-6-6-5-5-----
-----5-5-6-6-8-8-------------8-8-
-6-6-----------------------------
---------------------------------

-----------------6-6-4-4-3-3-----
-----3-3-4-4-6-6-------------6-6-
-4-4-----------------------------
---------------------------------

Play first part of bridge again