Anti-flag — Stars And Stripes

this song is pretty easy and the band kicks ass.
Check out my bands site called Bad Alibis........good luck

Intro

g-------------------------------------
d----------------------00-22----22-44-
a-44444444-----------22-------44------ (play 5 times)
e---------55555555-00-------22--------

Verse

g----------------------------------------------
d-----------------------------------77-66-44-2- (play 5 times)
a-44-77-66-44-00-44-66-7-44-77-66-44-----------
e----------------------------------------------

Part before chorus

g---------
d---------
a-4-7-6-4-
e---------

Then go back to chorus and your pretty much set