Anti-flag — Tearing Everyone Down

На этой странице Вы можете ознакомиться с 2 версиями подбора аккордов для гитары к песне "Tearing Everyone Down" группы (исполнителя) "Anti-flag".

Anti-Flag
Tearing Everyone Down
tabbed by: intense@westol.com


Intro/Verse:
-----------------------------------------------------
-----6-4-3-------------------4-2-------------2-2-4-4-
-4-4-----------7-7-5-5-4-4-2-----4-2-----4-4---------
-----------5-5-----------------------2-2-------------

2nd Line of Verse:
---------------------------------------------------------
-----6-4-3-------------------4-4-2-2-----4-4-2-2-1-1-----
-4-4-----------7-7-5-5-4-4-2---------4-4-------------4-4-
-----------5-5-------------------------------------------

3rd Line of Verse:
-6-6-6-6-6-------------------------------------------
-----------------------------4-2-------------2-2-4-4-
----------------7-7-5-5-4-4-2-----4-2-----4-4--------
-----------5-5-----------------------2-2-------------

Pre Chorus:
----------------------------------------------------
-------9-9-9----------------------------------7-7-7-
-7-7-7-------------6-6-6-------11-11-11-------------
-------------7-7-7-------9-9-9----------5-5-5-------

----------------------------------------------------------------------------
-------9-9-9---------------6-6-4-4----6-6-4-4-----6-6-4-4-------------------
-7-7-7-------------6-6-6-4---------6----------6-----------6---4---4---4---7-
-------------7-7-7-------------------5----------5-----------5---5---5---5---

Chorus:
-------------------------------------------------
-------------------------------------------------
-4-4-4-4-4-4-------------2-2-2-2-2-2-------------
-------------5-5-5-5-5-5-------------2-2-2-2-2-2-

-------------------------4-4-4-4-4-4-------------
-------------7-7-7-7-7-7-------------4-4-4-4-4-4-
-4-4-4-4-4-4-------------------------------------
-------------------------------------------------

Bridge:
-------------------------------4------
--------------------------7---------4-
-4---------2---------4----------------
------5---------2---------------------

Guitar lead if you would need it for some reason:
-----------------------------
-------------------5-4-2-----
-6-6-6-6-4-6-6-4-6-------2-4-
-----------------------------
-----------------------------
-----------------------------
--------------------------------------|
--------------------------------------|
--------------------------------------|
-----6----6---6------4x---------------|
-4-4---4-4---4------------------------|
--------------------------------------|
Verse
------------------------------------------------------------------------------
------------------------------------------------------------------------------
-6-6-6-6-6-6-------------4-4-4-4-4-4-------------6-6-6-6-6-6------------------
-6-6-6-6-6-6-7-7-7-7-7-7-4-4-4-4-4-4-4-4-4-4-4-4-6-6-6-6-6-6-7-7-7-7-7-7------
-4-4-4-4-4-4-7-7-7-7-7-7-2-2-2-2-2-2-4-4-4-4-4-4-4-4-4-4-4-4-7-7-7-7-7-7------
-------------5-5-5-5-5-5-------------2-2-2-2-2-2-------------5-5-5-5-5-5------
. . . . . . . . . . . . . . . . . . . . . . . .

------------------------------------------------------------------------------
------------------------------------------------------------------------------
-4-4-4-4-4-4--------------------6--6-6-6---------4-4-4-4---------6-6-6-6------
-4-4-4-4-4-4-4-4--4-4--4-4--4-4-6--6-6-6-7-7-7-7-4-4-4-4-4-4-4-4-6-6-6-6------
-2-2-2-2-2-2-4-4--4-4--4-4--4-4-4--4-4-4-7-7-7-7-2-2-2-2-4-4-4-4-4-4-4-4------
-------------2-2--2-2--2-2--2-2----------5-5-5-5---------2-2-2-2--------------
. . . . . . . . . . . . .

--------------------------------------|
--------------------------------------|
---------4-4-4-4----------------------|
-7-7-7-7-4-4-4-4-4-4-4-4----pick------|
-7-7-7-7-2-2-2-2-4-4-4-4----scrape----|
-5-5-5-5---------2-2-2-2--------------|




Pre Chorus
------------------------------------------------------------------------------
------------------------------------------------------------------------------
-9-9-9-9---------6-6-6-6---------9-9-9-9---------6-6-6-6----------------------
-9-9-9-9-9-9-9-9-6-6-6-6-7-7-7-7-9-9-9-9-9-9-9-9-6-6-6-6-9-9-9-9-9-9-9-9-9-9--
-7-7-7-7-9-9-9-9-4-4-4-4-7-7-7-7-7-7-7-7-9-9-9-9-4-4-4-4-9-9-9-9-9-9-9-9-9-9--
---------7-7-7-7---------5-5-5-5---------7-7-7-7---------7-7-7-7-7-7-7-7-7-7--


--------------------------------------|
--------------------------------------|
--------------------------------------|
-9-9-9--------------------------------|
-9-9-9--------------------------------|
-7-7-7--------------------------------|




Chorus
-------------------------------------------------------------------|
-------------------------------------------------------------------|
-6-6-6-6---------4-4-4-4---------6-6-6-6---------4-4-4-4-----------|
-6-6-6-6-7-7-7-7-4-4-4-4-4-4-4-4-6-6-6-6-7-7-7-7-4-4-4-4-4-4-4-4---|
-4-4-4-4-7-7-7-7-2-2-2-2-4-4-4-4-4-4-4-4-7-7-7-7-2-2-2-2-4-4-4-4---|
---------5-5-5-5---------2-2-2-2---------5-5-5-5---------2-2-2-2---|







Interlude
------------------------------------------------------------------------------
------------------------------------------------------------------------------
-6------------4---------------6----------------4------------------------------
-6-----7------4-------4-------6-------7--------4---------4-4--4-4--4-4--4-4---
-4-----7------2-------4-------4-------7--------2---------4-4--4-4--4-4--4-4---
-------5--------------2---------------5------------------2-2--2-2--2-2--2-2---
. . . . . . . .

------------------------------------------------------------------------------
------------------------------------------------------------------------------
-6-6-6-6-6---------------4-4-4-4-4---------------6-6-6-6---------4-4-4-4------
-6-6-6-6-6---7-7-7-7-7---4-4-4-4-4---4-4-4-4-4---6---6---7-7-7-7-4---4---4-4--
-4-4-4-4-4---7-7-7-7-7---2-2-2-2-2---4-4-4-4-4---4---4---7---7---2---2---4----
-------------5-5-5-5-5---------------2-2-2-2-2-----------5---5-----------2----
. . . . . . . . . . . . . . . . . . . . . . .

----------------------------------|
----------------------------------|
----------------------------------|
-4-4------------------------------|
-4--------------------------------|
-2--------------------------------|
.




Solo
-------------------------------9----------------------------------------------
-9-9-9----9-9-9----9-------------9-----------9v-12p9-12p9-12p9-12p9-12p9------
-------11-------11---11-9-11-9-----11-9----9----------------------------------
----------------------------------------11------------------------------------
------------------------------------------------------------------------------
------------------------------------------------------------------------------


----------------12b-12b-12b-12b-----------------------------------------------
-12p9-12p9-12p9-----------------9h12p9-9h12p9-9h12p9-9h12p9-9h12p9-12b-12b----
------------------------------------------------------------------------------
------------------------------------------------------------------------------
------------------------------------------------------------------------------
------------------------------------------------------------------------------


--------------------|
-12b-12b------------|
----------pick -----|
---------scrape----|
--------------------|
--------------------|
--------------------|




The chord over on the very last chorus
--------------------|
--------------------|
-6-6-6-6-6-6--------|
-x-x-x-x-x-x--------|
-4-4-4-4-4-4--------|
--------------------|