Anti-flag — Thats Youth

На этой странице Вы можете ознакомиться с 2 версиями подбора аккордов для гитары к песне "Thats Youth" группы (исполнителя) "Anti-flag".

Anti-Flag
That's Youth
tabbed by: intense@westol.com

this song is basically just 4 chords the whole way through but
throws some other notes in there

Intro/Chorus:
-------------------------------------------
-4-4-4-3-3-------4-4-----------------------
-----------4-4-4-----------1-1-2-2-2-2-2---
---------------------4-4-4---------------4-

Verse:
-----3-3-6-6-3-3---------------------------------------------1-1-
-4-4-----------------3-3-6-6-3-3---------------------1-1-4-4----- (2x)
-----------------4-4-----------------3-3-6-6-3-3-2-2-------------
---------------------------------4-4-----------------------------

-------------------------------------------------
-4-4-4-4-4-4-------------------------------------
-------------4-4-4-4-4-4-------------2-2-2-2-2-2-
-------------------------4-4-4-4-4-4-------------

1st part of Bridge:
-----------------------------------------------------------------
-4-4-4-4-4-4-----------------------------------------------------
-------------4-4-4-4-4-4-------------2-2-2-2-2-2-------------4-4-
-------------------------4-4-4-4-4-4-------------2-2-2-2-2-2-----

---------------------------------
---------------------------------
-4-4-4-4-------------2-2-2-2-2-2-
---------4-4-4-4-4-4-------------

2nd part of bridge: (after pause)
---------------------------------------------------------------
-4-4-4-3-3-------4-4-------------------------------------------
-----------4-4-4-----------1-1-2-2-2-2-2---------------4-4-4-4-
---------------------4-4-4---------------4-2-2-2-2-2-2---------

-----------------------------
-----------------------------
-4-4---------1-1-2-2-2-2-2---
-----4-4-4-4---------------4-
Anti-Flag - That's Youth

intro/riff
E|-------------------------------------------
B|-------------------------------------------
G|-------------------------------------------
D|-44444433------33--------------------------
A|---------444444----------------------------
E|-----------------4444446677777744----------

E|-------------------------------------------
B|-------------------------------------------
G|-------------------------------------------
D|-44444433------33------8-9-----------------
A|---------444444--------8-9-----------------
E|-----------------4444446-7-----------------


E|-------------------------------------------
B|-------------------------------------------
G|-11-11-11-11-------------9-9-9-9-----------
D|-11-11-11-11-11-11-11-11-9-9-9-9-9-9-9-9---
A|--9--9--9--9-11-11-11-11-7-7-7-7-9-9-9-9---
E|--------------9--9--9--9---------7-7-7-7---

Chorus:
E|-------------------------------------------
B|-------------------------------------------
G|-11-11-111110-----------10-----------------
D|-11-11-111110-11-11-111110-6-6-668-9-9-996-
A|--9--9--9-9-8-11-11-1111-8-6-6-668-9-9-996-
E|---------------9--9--9-9---4-4-446-7-7-774-