Anti-flag — The Panama Deception

The panama deception----
SOLO

e------------------------------------6-----------------------------------
b--------------------------------7------7-7---6--------------------------
g-------------------------------------------------8---6------------------
d-----------------------9------------------------------------------------
a---9---8---6-----8------------------------------------------------------
E------------------------------------------------------------------------


e------------------------------------6-----------------------------------
b-------------------------------7-------7---6----------------------------
g------------------------------------------------------------------------
d---------------------9--------------------------------------------------
a----6----8----6---------------------------------------------------------
E------------------------------------------------------------------------


e-----------------------------------6------------------------------------
b-------------------------------7------7-7---6---------------------------
g-----------------------------------------------8---6--------------------
d-------------------9----------------------------------------------------
a----6----8----6---------------------------------------------------------
E------------------------------------------------------------------------


e----------------------------------6-------------------------------------
b-----------------------------7-------7---6----6------6---6--6-6-6-6-----
g------------------------------------------------------------------------
d--------------------9---------------------------------------------------
a----6----8----6---------------------------------------------------------
E------------------------------------------------------------------------

If u have any questions please email.
Email-fight_club57@hotmail.com