Anti-flag — Turncoat

На этой странице Вы можете ознакомиться с 3 версиями подбора аккордов для гитары к песне "Turncoat" группы (исполнителя) "Anti-flag".

Tabbed by Davey Jones

INTRO

G|----------------|
D|----------------|
A|----------------|
E|-111111111------|

INTRO PT 2

G|------------------------------------------------------------|
D|------------------------------------------------------------|
A|------------------------------11-00----00-------------------|
E|-1111111111-333333333--------33---33-11-33-11---------------|

G|------------------------------------------------------------|
D|------------------------------------------00----22----------|
A|-------------------------------11-00-11----33---33-00-------|
E|-1111111111-333333333---------------------------------------|

VERSE

G|------------------------------|---------|
D|------------------------------|------3--|
A|------------------------------|--1-1----|
E|-1111111111-333333333|------------------| THIS SECTION 3 TIMES
WHOLE VERSE 3 TIMES

G|-----------------------------------------------------------------------------|
D|-----------------------------------------------------------------------------|
A|-----------------------------------------------------------------------------|
E|-111111111-333333333-66666666-5555555-3333333-0000000------------------------|

CHORUS x2

G|--------------------|
D|--------------------|
A|----------1-1-000---|
E|-1-1-333------------|

G|------------------------------------------|
D|------------------------------------------|
A|------------------------------------------|
E|-666666-5555-3333-11111111111-------------|

BREAK

BRIDGE

G|----------------------------------------------------------------|
D|----------------------------------------------------------------|
A|---------------------------------------------------------3~1~---|
E|-111111111111-33333333333-000000000000--------------------------|

SPEED UP IF YOU LISTEN TO SONG

G|--------------------------------------|
D|--------------------------------------|
A|-3~1~3-1~-3-1~3-1-3-1-3-1-3-----------|
E|--------------------------------------|

CHORUS x1

COOL CHORUS

G|--------------------------------3-1-0----------------|
D|-----3-1-0---------0-1-3------------3----------------|
A|------------3-----3--------1-1----------000-0-4-5----|
E|-1-1---------333-------------------------------------|

G|------------------------------------------|
D|------------------------------------------|
A|------------------------------------------|
E|-666666-5555-3333-11111111111-------------|

OUTRO

G|------------------------------------------------------------|
D|------------------------------------------------------------|
A|------------------------------11-00----00-------------------|
E|-1111111111-333333333--------33---33-11-33-11---------------|

G|------------------------------------------------------------|
D|------------------------------------------00----22----------|
A|-------------------------------11-00-11----33---33-00-------|
E|-1111111111-333333333---------------------------------------|

G|------------------------------------------------------------|
D|------------------------------------------------------------|
A|------------------------------11-00----00-------------------|
E|-1111111111-333333333--------33---33-11-33-11---------------|

G|----------------------------------|
D|----------------------------------|
A|----------------------------------|
E|-1111111111-3333333333------------|

OUTRO PT 2

G|-10-10-9-9-77--------------------------------------|
D|-----------------10-10-8-8-7-7---------------------|
A|----------------------------------10-10-8-8--------|
E|---------------------------------------------------| x3

G|--------------------|
D|--------------------|
A|--------------------|
E|-11111111111-1
Turncoat - Anti-flag
Album: The Terror State
Tabbed By: Pat Butkiewicz (Pat@sfxrules.cjb.net)

NOTE: I had a lot of trouble with the ending. Anyone who knows the ending
correctly please Email me about it and ill add it to the tab.

Intro
E|-1-1--3-3-3-------1-1-1-------------------------------|
B|-1-1--3-3-3--3-3--3-3-3-3-3-3-33-5-55-3-33------------|
G|-2-2--4-4-4--3-3--2-2-2-3-3-3-33-5-55-3-33------------|
E|-3-3--5-5-5--3-3--0-0-0-3-3-3-33-5-55-3-33-3-3-33-33-3|
A|-3-3--5-5-5--1-1--0-0-0-1-1-1-11-3-33-1-11-3-3-33-33-3|
E|-1-1--3-3-3--------------------------------1-1-11-11-1|

Pre Verse X2
E|-----------------------------------------------------|
B|----6-5------6-5-8-----------------------------------|
G|--------5---------------7-7-----5-5-----3-3-----3-2--|
E|--3--------3--------3-3-----3-3-----3-3-----3-3------|
A|-----------------------------------------------------|
E|-----------------------------------------------------|

E|-----------------------------------------------------|
B|----6-5------6-5-8----------------------3-3-----5-5-6|
G|--------5---------------7-7-----5-5------------------|
E|--3--------3--------3-3-----3-3-----3-3-----3-3------|
A|-----------------------------------------------------|
E|-----------------------------------------------------|

Verse X4
E|----------------------------------------|
B|----------------------------------------|
G|-------------------33-3-33-3-33-3-33-3--|
E|-33333333-55555555-33-3-33-3-33-3-33-3--|
A|-33333333-55555555-11-1-11-1-11-1-11-1--|
E|-11111111-33333333----------------------|
P.M..... ........ .. .. .. ..

Chorus X2
E|-1-1--3-3-3-------1-1-1-------------------------------|
B|-1-1--3-3-3--3-3--3-3-3-3-3-3-33-5-55-3-33------------|
G|-2-2--4-4-4--3-3--2-2-2-3-3-3-33-5-55-3-33------------|
E|-3-3--5-5-5--3-3--0-0-0-3-3-3-33-5-55-3-33-3-3-33-33-3|
A|-3-3--5-5-5--1-1--0-0-0-1-1-1-11-3-33-1-11-3-3-33-33-3|
E|-1-1--3-3-3--------------------------------1-1-11-11-1|

Post Chorus
E|-1-1-11-11-1-3-3-33-33-3------------------------|
B|-1-1-11-11-1-3-3-33-33-3------------------------|
G|-2-2-22-22-2-4-4-44-44-4-7-7-77-77-7-5-5-55-55-5|
E|-3-3-33-33-3-5-5-55-55-5-7-7-77-77-7-5-5-55-55-5|
A|-3-3-33-33-3-5-5-55-55-5-5-5-55-55-5-3-3-33-33-3|
E|-x-x-xxxxx-1-3-3-33-33-3------------------------|

E|-------------------------------------------------------------------|
B|-------------------------------------------------------------------|
G|------------------------------------------77777777-53-53-53-53-53--|
E|-33-3-33-3-33-3-33-3-55-5-55-5-55-5-55-5--77777777-53-53-53-53-53--|
A|-33-3-33-3-33-3-33-3-55-5-55-5-55-5-55-5--55555555-31-31-31-31-31--|
E|-11-1-11-1-11-1-11-1-33-3-33-3-33-3-33-3---------------------------|
PM ** ** ** ** ** ** ** ******

Chorus X6
E|-1-1--3-3-3-------1-1-1-------------------------------|
B|-1-1--3-3-3--3-3--3-3-3-3-3-3-33-5-55-3-33------------|
G|-2-2--4-4-4--3-3--2-2-2-3-3-3-33-5-55-3-33------------|
E|-3-3--5-5-5--3-3--0-0-0-3-3-3-33-5-55-3-33-3-3-33-33-3|
A|-3-3--5-5-5--1-1--0-0-0-1-1-1-11-3-33-1-11-3-3-33-33-3|
E|-1-1--3-3-3--------------------------------1-1-11-11-1|

End On
e----|
B----|
G-5--|
E-5--|
A-3--|
E----|
it is in drop d

d-3-3--5-5-5--8-8-0-0-888888--77777-55555-333333333-|
a-3-3--5-5-5--8-8-0-0-888888--77777-55555-333333333-|
d---------------------------------------------------|
g---------------------------------------------------|
b---------------------------------------------------|
e---------------------------------------------------|

the second guitar goes

d--3------5----8-8-8-8-8-8-8-|
a----------------------------|
d----------------------------|
g----------------------------|
b----------------------------|
e----------------------------|


then palm mute


then do not plame mute hear when u play 8-
d-3333333-555555-88-8-88-8-88-8-88-8 8--|
a-------------------8----8----8----8---------------------------|
d--------------------------------------------------------------|
g--------------------------------------------------------------|
b--------------------------------------------------------------|
e--------------------------------------------------------------|

thats all i have for now enjoy any question eat_sleep_playguitat@hotmail.com