Anti-flag — Weve Got His Gun

Anti-Flag:
We've Got His Gun
Tabbed by: intense@westol.com

this is tabbed in normal antiflag tuning (half step down). if you're
regular tuning, just play everything one fret lower than what it says
on this tab

Intro:
Gb---9-7---7-7-9-9---------5-5-7-7-----------------------------
Db-------9-------------7-7---------------------7-7-5-5---------
Ab-7---------------5-5-------------3-3-3-3-3-3---------8-8-7-7-
Eb-------------------------------------------------------------

Gb---9-7---7-7-9-9---------5-5-7-7-------------9-9-9---7-7-9-9-
Db-------9-------------7-7---------------------------7---------
Ab-7---------------5-5-------------3-3-3-3-3-3-----------------
Eb-------------------------------------------------------------

Verse:
Gb-----------------------------------------------------------------
Db-2-2-2-2-2-2-2-2---------------------------------5-5-5-5-5-5-5-5-
Ab-----------------5-5-5-5-5-5-5-5-3-3-3-3-3-3-3-3-----------------
Eb-----------------------------------------------------------------

Chorus:
Gb-----------------------------------------2-2-4-2-
Db-2-2-2-2-2-2-2-2---------------------4-4---------
Ab-----------------3-3-3-3-3-3-3-3-2-2-------------
Eb-------------------------------------------------

Bridge:
Gb---------------------------------------------
Db-----------------------------------------5-7-
Ab-7-5-7-5-7-5-7-5-7-5-7-5-7-5-7-5-7-5-7-5-----
Eb---------------------------------------------