Anti-flag — You Can Kill The Protestor But You Cant Kill The..

----------------------------------------------------------------------------
you can kill the protestor, but you can't kill the protest-anti-flag
----------------------------------------------------------------------------
Tabbed by:carlos x. torres
Email:monkeyslive6@hotmail.com

Tuning:standard

this is my first tab tabed by me so dont hate me if it sucks
if u have any questions or comments e-mail me


e|------------------------------------------------------------------
b|------------------------------------------------------------------
g|-8-8-8-8-8-1111111111---------------11111-------------------------
d|-8-8-8-8-8-1111111111-111111111111--11111-11--9-9-9-9-9-1111111111
a|-6-6-6-6-6--9-9-9-9-9-111111111111--9-9-9-11--9-9-9-9-9-1111111111
b|-----------------------9-9-9-9-9-9---------9--7-7-7-7-7--9-9-9-9-9

e|--------------------------
b|--------------------------
g|-8-8-8-8-8-8----14/-14/---
d|-8-8-8-8-8-8--------------
a|-6-6-6-6-6-6--------------
e|--------------------------

e|------------------------------------------------------------------
b|------------------------------------------------------------------
g|-8-8-8-8-8-1111111111---------------11111-------------------------
d|-8-8-8-8-8-1111111111-111111111111--11111-11--9-9-9-9-9-1111111111
a|-6-6-6-6-6--9-9-9-9-9-111111111111--9-9-9-11--9-9-9-9-9-1111111111
b|-----------------------9-9-9-9-9-9---------9--7-7-7-7-7--9-9-9-9-9


verse
e|-----------------------------------------
b|-----------------------------------------
g|-8-8-8-8-8-8-8-8-8----------------------- x4
d|-8-8-8-8-8-8-8-8-8-9-9-9-9-9-1111111111--
a|-6-6-6-6-6-6-6-6-6-9-9-9-9-9-1111111111--
e|-------------------7-7-7-7-7--9-9-9-9-9--

pre chorus
e|------------------------------------------------
b|------------------------------------------------
g|------------------------------------------------
d|-8-8-8-8-8-8-8-8-8--9-9-9-9-9-------------------
a|-8-8-8-8-8-8-8-8-8--9-9-9-9-9-----11/11/11/11---
e|-6-6-6-6-6-6-6-6-6--7-7-7-7-7------9/-9/-9/-9/--

chorus
e|------------------------------------------------------------------
b|------------------------------------------------------------------
g|-8-8-8-8-8-1111111111---------------11111-------------------------
d|-8-8-8-8-8-1111111111-111111111111--11111-11--9-9-9-9-9-1111111111
a|-6-6-6-6-6--9-9-9-9-9-111111111111--9-9-9-11--9-9-9-9-9-1111111111
b|-----------------------9-9-9-9-9-9---------9--7-7-7-7-7--9-9-9-9-9

e|--------------------------
b|--------------------------
g|-8-8-8-8-8-8----14/-14/---
d|-8-8-8-8-8-8--------------
a|-6-6-6-6-6-6--------------
e|--------------------------

e|------------------------------------------------------------------
b|------------------------------------------------------------------
g|-8-8-8-8-8-1111111111---------------11111-------------------------
d|-8-8-8-8-8-1111111111-111111111111--11111-11--9-9-9-9-9-1111111111
a|-6-6-6-6-6--9-9-9-9-9-111111111111--9-9-9-11--9-9-9-9-9-1111111111
b|-----------------------9-9-9-9-9-9---------9--7-7-7-7-7--9-9-9-9-9

e|--------------------------
b|----------------------------------------
g|-8-8-8-8-8-11-10-8------11---------8-8-8-8-8-16-15-13-11---11-11-13-
d|-8-8-8-8-8-11-10-8-11-9-11-11-13---8-8-8-8-8-16-15-13-11-9-11-11-13-
a|-6-6-6-6-6--9--8-6-11-9--9-11-13---6-6-6-6-6-14-13-11--9-9--9-11-11-
e|--------------------9-7-----9-11-------------------------7-----9----


verse

pre chorus

chorus

bridge
e|----------------------- e|----------------------------
b|----------------------- b|----------------------------
g|-8-8-8-8-8--1111-------x3 g|----------------------------
d|-8-8-8-8-8--1111-1111-- d|-8-8-8-8-8-8-8-8-9-9-9-9-9-9-9-9-
a|-6-6-6-6-6---9-9-1111-- a|-8-8-8-8-8-8-8-8-9-9-9-9-9-9-9-9-
e|------------------9-9-- e|-6-6-6-6-6-6-6-6-7-7-7-7-7-7-7-7-

e|----------------------- e|-----------------------------
b|----------------------- b|-----------------------------
g|-8-8-8-8-8--1111-------x3 g|-----------------------------
d|-8-8-8-8-8--1111-1111-- d|-8-8-8-8-8-8-8-8-9-9-9-9-9-11-
a|-6-6-6-6-6---9-9-1111-- a|-8-8-8-8-8-8-8-8-9-9-9-9-9-11-
e|------------------9-9-- e|-6-6-6-6-6-6-6-6-7-7-7-7-7--9-

chorus

last
e|----------------------- e|----------------------
b|----------------------- b|----------------------
g|-8-8-8-8-8--1111-------x3 g|-------------------8--
d|-8-8-8-8-8--1111-1111-- d|-8-8-8-8-8-9-8-9-8-8--
a|-6-6-6-6-6---9-9-1111-- a|-8-8-8-8-8-9-8-9-8-6--
e|------------------9-9-- e|-6-6-6-6-6-7-6-7-6----


You can spoon my eyes out,
but I can still see through you
Slice my ears from my head,
but you can not shut out the sounds of truth
Lock off each hand at the wrist
so I can't raise my fist!

you can kill the protestor (can't kill)
you can't kill the protest
you can murder the rebel (murder)
you can't murder the rebellion

Sawed my feet at the ankles, but i wasnt going to run
Grabbed my face, sliced off my tongue
Lock off each hand at the wrist,
so I can't raise my fist!

you can kill the protestor (can't kill)
you can't kill the protest
you can murder the rebel (murder)
you can't murder the rebellion

LYING STILL NOW, NO WAY TO SPEAK. NOTHING TO FEAR, BULLETS CAN'T SILENCE IDEAS!