Anti-flag — Youd Do The Same

На этой странице Вы можете ознакомиться с 2 версиями подбора аккордов для гитары к песне "Youd Do The Same" группы (исполнителя) "Anti-flag".

SONG: YOU'D DO THE SAME
BAND: ANTI-FLAG
TABBED BY: DAN HAVOC, BASSIST FOR THE NEUTRALS

INTRO: ( x WHATEVER, I DON'T WANT TO COUNT IT)
G---6-9-6----6-9-6-----------------------------77-99-|
D----------9----------9---------77-99------99---------|
A-9---------9---------------99----------77------------- |
E-------------------------77------------------------------|

VERSE:
G---------------------------------------------------------77-99-|
D---------------------------------------77-99------99----------| (x3)
A-9-999999999999999-----99----------77--------------|
E-------------------------------77--------------------------------|

G--------------------------------------------------77-99-|
D---------------------------------77-99-----99----------| (x1)
A-9-9-9-9-9-9----99---------77--------------|
E--------------------------77------------------------------|

CHORUS:
G------------------------------------------------------------|
D------------------------------------------------------------|
A-9-99999999999999----------------7-777777-|
E-----------------------------7-777777-----------------|

BRIDGE:
G----------------------------------------6699-11-11-9966----|
D------------------------------------99------------------------99-| ( x3)
A--------------------------------9----------------------------------|
E-8-8888-10-10101010-------------------------------------|

G------------------------------|
D------------------------------|
A------------------------------|
E-8-8888-10-10-10-10-|

OUTRO:
G------------------------------------------------------------------------------------
D------------------------------------------------------------------------------------
A-99------------------------99-------------------12-11---99------------------------99
E-----99-10-10-99-7-9-------99-10-10-99----------------99-10-10-99-7-9-----99-10---
I'LL LET YOU FIGURE OUT THE ORDER, I'M TOO LA

[Image]
Artist: Anti-Flag
Song: You'd do the same
Album: Die for your government
By: Schteban, stefarends@hotmail.com, www.slums.tk
Any questions or comments, e-mail me.

Intro:
Intro-Lead Guitar
e|-----------------------------------------------------------------------|
B|-----------------------------------------------------------------------|
G|-11~~---------------11~~-----------------------Pickslide---------------|
D|-11~~---------------11~~---------------|
A|-9~~~---------------9~~~---------------|
E|---------------------------------------|

e|-----------------------------------------------------------------------|
B|-----------------------------------------------------------------------|
G|-11-11-11-11-11-11-11-11-11-11-11-11-11-11-11-11-----------------------|
D|-11-11-11-11-11-11-11-11-11-11-11-11-11-11-11-11-----------------------|
A|-9--9--9--9--9--9--9--9--9--9--9--9--9--9--9—-9------------------------|
E|-----------------------------------------------------------------------|

e|-----------------------------------------------------------------------|
B|-----------------------------------------------------------------------|
G|-----------------9-9-9-9-9-9-9-9---------------------------------------|
D|-9-9-9-9-9-9-9-9-9-9-9-9-9-9-9-9---------------------------------------|
A|-9-9-9-9-9-9-9-9-7-7-7-7-7-7-7-7---------------------------------------|
E|-7-7-7-7-7-7-7-7-------------------------------------------------------|

e|-----------------------------------------------------------------------|
B|-----------------------------------------------------------------------|
G|-11-11-11-11-11-11-11-11-11-11-11-11-11-11-11-11-----------------------|
D|-11-11-11-11-11-11-11-11-11-11-11-11-11-11-11-11-----------------------|
A|-9--9--9--9--9--9--9--9--9--9--9--9--9--9--9—-9------------------------|
E|-----------------------------------------------------------------------|

e|-----------------------------------------------------------------------|
B|-----------------------------------------------------------------------|
G|-----------------9-9-9-9-9-9-9-9---------------------------------------|
D|-9-9-9-9-9-9-9-9-9-9-9-9-9-9-9-9---------------------------------------|
A|-9-9-9-9-9-9-9-9-7-7-7-7-7-7-7-7---------------------------------------|
E|-7-7-7-7-7-7-7-7-------------------------------------------------------|

Verse:
e|-----------------------------------------------------------------------|
B|-----------------------------------------------------------------------|
G|-11-11-11-11-11-11-11-11-11-11-11-11-11-11-11-11-----------------------|
D|-11-11-11-11-11-11-11-11-11-11-11-11-11-11-11-11-----------------------|
A|-9--9--9--9--9--9--9--9--9--9--9--9--9--9--9—-9------------------------|
E|-----------------------------------------------------------------------|
Pm: . . . . . . . . . . . . . . .
e|-----------------------------------------------------------------------|
B|-----------------------------------------------------------------------|
G|-----------------9-9-9-9-9-9-9-9---------------------------------------|
D|-9-9-9-9-9-9-9-9-9-9-9-9-9-9-9-9---------------------------------------|
A|-9-9-9-9-9-9-9-9-7-7-7-7-7-7-7-7---------------------------------------|
E|-7-7-7-7-7-7-7-7-------------------------------------------------------|
Pm: . . . . . . . . . . . . . .

e|-----------------------------------------------------------------------|
B|-----------------------------------------------------------------------|
G|-11-11-11-11-11-11-11-11-11-11-11-11-11-11-11-11-----------------------|
D|-11-11-11-11-11-11-11-11-11-11-11-11-11-11-11-11-----------------------|
A|-9--9--9--9--9--9--9--9--9--9--9--9--9--9--9—-9------------------------|
E|-----------------------------------------------------------------------|
Pm: . . . . . . . . . . . . . . .
e|-----------------------------------------------------------------------|
B|-----------------------------------------------------------------------|
G|-----------------9-9-9-9-9-9-9-9---------------------------------------|
D|-9-9-9-9-9-9-9-9-9-9-9-9-9-9-9-9---------------------------------------|
A|-9-9-9-9-9-9-9-9-7-7-7-7-7-7-7-7---------------------------------------|
E|-7-7-7-7-7-7-7-7-------------------------------------------------------|
Pm: . . . . . . . . . . . . . .

e|-----------------------------------------------------------------------|
B|-----------------------------------------------------------------------|
G|-11-11-11-11-11-11-11-11-11-11-11-11-11-11-11-11-----------------------|
D|-11-11-11-11-11-11-11-11-11-11-11-11-11-11-11-11-----------------------|
A|-9--9--9--9--9--9--9--9--9--9--9--9--9--9--9—-9------------------------|
E|-----------------------------------------------------------------------|
Pm: . . . . . . . . . . . . . . .
e|-----------------------------------------------------------------------|
B|-----------------------------------------------------------------------|
G|-----------------9-9-9-9-9-9-9-9---------------------------------------|
D|-9-9-9-9-9-9-9-9-9-9-9-9-9-9-9-9---------------------------------------|
A|-9-9-9-9-9-9-9-9-7-7-7-7-7-7-7-7---------------------------------------|
E|-7-7-7-7-7-7-7-7-------------------------------------------------------|
Pm: . . . . . . . . . . . . . .

e|-----------------------------------------------------------------------|
B|-----------------------------------------------------------------------|
G|-11-~~~~-------------------------------------------------pickslide-----|
D|-11-~~~~---------------------------9-~~--------------|
A|-9--~~~~---------------------------9-~~--------------|
E|-----------------------------------7-~~--------------|

Chorus:
e|-----------------------------------------------------------------------|
B|-----------------------------------------------------------------------|
G|-11-11-11-11-11-11-11-11-11-11-11-11-11-11-11-11-----------------------|
D|-11-11-11-11-11-11-11-11-11-11-11-11-11-11-11-11-----------------------|
A|-9--9--9--9--9--9--9--9--9--9--9--9--9--9--9—-9------------------------|
E|-----------------------------------------------------------------------|

e|-----------------------------------------------------------------------|
B|-----------------------------------------------------------------------|
G|-----------------9-9-9-9-9-9-9-9---------------------------------------|
D|-9-9-9-9-9-9-9-9-9-9-9-9-9-9-9-9---------------------------------------|
A|-9-9-9-9-9-9-9-9-7-7-7-7-7-7-7-7---------------------------------------|
E|-7-7-7-7-7-7-7-7-------------------------------------------------------|
X4

Interlude 1:
e|-----------------------------------------------------------------------|
B|-777777777777777-9-10-9-7-12-10-7---12p10p7 12p10p7—12p10p7-12p10p7----|
G|-----------------------------------------------------------------------|
D|-----------------------------------------------------------------------|
A|-----------------------------------------------------------------------|
E|-----------------------------------------------------------------------|

e|-----------------------------------------------------------------------|
B|-12b13-12b13-12b13-12b13-12b13-12b13-12b13~~---------------------------|
G|-----------------------------------------------------------------------|
D|-----------------------------------------------------------------------|
A|-----------------------------------------------------------------------|
E|-----------------------------------------------------------------------|

Verse:
e|-----------------------------------------------------------------------|
B|-----------------------------------------------------------------------|
G|-11-11-11-11-11-11-11-11-11-11-11-11-11-11-11-11-----------------------|
D|-11-11-11-11-11-11-11-11-11-11-11-11-11-11-11-11-----------------------|
A|-9--9--9--9--9--9--9--9--9--9--9--9--9--9--9—-9------------------------|
E|-----------------------------------------------------------------------|
Pm: . . . . . . . . . . . . . . .
e|-----------------------------------------------------------------------|
B|-----------------------------------------------------------------------|
G|-----------------9-9-9-9-9-9-9-9---------------------------------------|
D|-9-9-9-9-9-9-9-9-9-9-9-9-9-9-9-9---------------------------------------|
A|-9-9-9-9-9-9-9-9-7-7-7-7-7-7-7-7---------------------------------------|
E|-7-7-7-7-7-7-7-7-------------------------------------------------------|
Pm: . . . . . . . . . . . . . .

e|-----------------------------------------------------------------------|
B|-----------------------------------------------------------------------|
G|-11-11-11-11-11-11-11-11-11-11-11-11-11-11-11-11-----------------------|
D|-11-11-11-11-11-11-11-11-11-11-11-11-11-11-11-11-----------------------|
A|-9--9--9--9--9--9--9--9--9--9--9--9--9--9--9—-9------------------------|
E|-----------------------------------------------------------------------|
Pm: . . . . . . . . . . . . . . .
e|-----------------------------------------------------------------------|
B|-----------------------------------------------------------------------|
G|-----------------9-9-9-9-9-9-9-9---------------------------------------|
D|-9-9-9-9-9-9-9-9-9-9-9-9-9-9-9-9---------------------------------------|
A|-9-9-9-9-9-9-9-9-7-7-7-7-7-7-7-7---------------------------------------|
E|-7-7-7-7-7-7-7-7-------------------------------------------------------|
Pm: . . . . . . . . . . . . . .

e|-----------------------------------------------------------------------|
B|-----------------------------------------------------------------------|
G|-11-11-11-11-11-11-11-11-11-11-11-11-11-11-11-11-----------------------|
D|-11-11-11-11-11-11-11-11-11-11-11-11-11-11-11-11-----------------------|
A|-9--9--9--9--9--9--9--9--9--9--9--9--9--9--9—-9------------------------|
E|-----------------------------------------------------------------------|
Pm: . . . . . . . . . . . . . . .
e|-----------------------------------------------------------------------|
B|-----------------------------------------------------------------------|
G|-----------------9-9-9-9-9-9-9-9---------------------------------------|
D|-9-9-9-9-9-9-9-9-9-9-9-9-9-9-9-9---------------------------------------|
A|-9-9-9-9-9-9-9-9-7-7-7-7-7-7-7-7---------------------------------------|
E|-7-7-7-7-7-7-7-7-------------------------------------------------------|
Pm: . . . . . . . . . . . . . .

e|-----------------------------------------------------------------------|
B|-----------------------------------------------------------------------|
G|-11-~~~~-------------------------------------------------pickslide-----|
D|-11-~~~~---------------------------9-~~--------------|
A|-9--~~~~---------------------------9-~~--------------|
E|-----------------------------------7-~~--------------|

Chorus:
e|-----------------------------------------------------------------------|
B|-----------------------------------------------------------------------|
G|-11-11-11-11-11-11-11-11-11-11-11-11-11-11-11-11-----------------------|
D|-11-11-11-11-11-11-11-11-11-11-11-11-11-11-11-11-----------------------|
A|-9--9--9--9--9--9--9--9--9--9--9--9--9--9--9—-9------------------------|
E|-----------------------------------------------------------------------|

e|-----------------------------------------------------------------------|
B|-----------------------------------------------------------------------|
G|-----------------9-9-9-9-9-9-9-9---------------------------------------|
D|-9-9-9-9-9-9-9-9-9-9-9-9-9-9-9-9---------------------------------------|
A|-9-9-9-9-9-9-9-9-7-7-7-7-7-7-7-7---------------------------------------|
E|-7-7-7-7-7-7-7-7-------------------------------------------------------|
X4

Interlude 2:
e|-----------------------------------------------------------------------|
B|-----------------------------------------------------------------------|
G|------------------------------------------11----11--11----11----11--11-|
D|-101010101010101012-12-12-12-12-12-12-12---9-----9---9-----9-----9---9-|
A|-101010101010101012-12-12-12-12-12-12-12---9-----9---9-----9-----9---9-|
E|-8-8-8-8-8-8-8-8-10-10-10-10-10-10-10-10-------------------------------|
X4

Chorus:
e|-----------------------------------------------------------------------|
B|-----------------------------------------------------------------------|
G|-11-11-11-11-11-11-11-11-11-11-11-11-11-11-11-11-----------------------|
D|-11-11-11-11-11-11-11-11-11-11-11-11-11-11-11-11-----------------------|
A|-9--9--9--9--9--9--9--9--9--9--9--9--9--9--9—-9------------------------|
E|-----------------------------------------------------------------------|

e|-----------------------------------------------------------------------|
B|-----------------------------------------------------------------------|
G|-----------------9-9-9-9-9-9-9-9---------------------------------------|
D|-9-9-9-9-9-9-9-9-9-9-9-9-9-9-9-9---------------------------------------|
A|-9-9-9-9-9-9-9-9-7-7-7-7-7-7-7-7---------------------------------------|
E|-7-7-7-7-7-7-7-7-------------------------------------------------------|
X4

Outro:
e|-----------------------------------------------------------------------|
B|-----------------------------------------------------------------------|
G|-11---------------11----------14-12-11---------------11----------------|
D|-11-11-12-11-9-11-11-11-12-11-14-12-11-11-12-11-9-11-11-11-12~~--------|
A|--9-11-12-11-9-11--9-11-12-11-12-10--9-11-12-11-9-11--9-11-12~~--------|
E|-----9-10--9-7--9-----9-10--9-----------9-10--9-7--9-----9-10~~--------|