Anti Heros — Dark Streets

Artist:  The Anti-Heros
Song: Dark Streets
Tabbed by: Rick (RCGoalie1@aol.com)
AIM: rickrack97

Chords:

E5 (022xxx)
F5 (133xxx)
A5 (577xxx)
C5 (x355xx)
F#5 (244xxx)
G5 (355xxx)
G#5 (466xxx)
D5 (x577xx)

Intro: after the bass plays it's riff twice, come in with a pick slide

E|------------------------------------------------|
B|------------------------------------------------|
G|------------------------------------------------|
D|--7----4-5-6-7-----7------7------7-----4-5-6-7--|
A|--7----4-5-6-7-----7------7------7-----4-5-6-7--|
E|--5----2-3-4-5-----5------5------5-----2-3-4-5--|

Verse:

E|--------------------------------|
B|--------------------------------|
G|--------------5------5-5--------|
D|--7-7-7-7-7-7-5--3-3-5-5-7-7-7--|
A|--7-7-7-7-7-7-3--3-3-3-3-7-7-7--|
E|--5-5-5-5-5-5----1-1-----5-5-5--|

Chorus:

E|--------------------------------------------------------------------|
B|--------------------------------------------------------------------|
G|--7-7-5-5---------7-7-5-5---------7-7-5-5---------------------------|
D|--7-7-5-5-7-7-7-7-7-7-5-5-7-7-7-7-7-7-5-5-7-7-7-7--3-3-2-2-7-7-7-7--|
A|--5-5-3-3-7-7-7-7-5-5-3-3-7-7-7-7-5-5-3-3-7-7-7-7--3-3-2-2-7-7-7-7--|
E|----------5-5-5-5---------5-5-5-5---------5-5-5-5--1-1-0-0-5-5-5-5--|


That's all, I don't have the solo. Sorry. Later.