Antiskeptic — Called

HEY PPL THIS IS MY FIRST TAB ITS 100% IM PRITY SURE ALL MY M8S RECOND IT IS AND
SO DO I IF U GOT ANY PROBLEMS OR ANY THING E-MAIL ME WAFFER_DOG@HOTMAIL.COM
THATS BOUT ALL !!!ROCK ON!!!

INTRO
E------------------------------------
B------------------------------------
G------------------------------------
D---4-4-4---------7-9-7--4-4---------
A---2-2-2--4-4-4--5-7-5--2-2--4-4-4-4
E----------2-2-2--------------2-2-2-2

E-------------------------------------------
B-------------------------------------------
G-------------------------------------------
D-4-4-4---------7-9-7--4-4------------------
A-2-2-2--4-4-4--5-7-5--2-2--4-4-4-4--5-5-5-5
E--------2-2-2--------------2-2-2-2--3-3-3-3

E--------------------------------------------
B--------------------------------------------
G--------------------------------------------
D--5-5-5-5-4-4------------------------------- PLAY TWICE
A--------------5-5-5-5-7---------------------
E------------------------7-7-7-7-7-10-9-7-9-7

E-------------------------------------------
B-------------------------------------------
G-------------------------------------------
D--------------------------------4---------- PLAY TWICE
A-------5-4-5-----5-4-5------------5-7-5-4-5
E--5-5--------5-5--------7-7-5-5------------
M M M M M M M M

SOLO

E----------------------------------------------
B----------------10-9-7-------8-7--------------
G-----4-5-7-5-7-7--------7-------9-7--9-7-5-6-5
D-5-5---------------------99------7-7---------- PLAY TWICE
A----------------------------------------------
E----------------------------------------------