Apocalyptica — Hall Of The Mountain King

Hi !!
I know, that this isn?t a song of Apocalyptica, but i heard it and WOW!!!

I don?t know the intro but the first part is really slow and it goes like this:

E--------------------------------------------------------|
B--------------------------------------------------------|
G--------------------------------------------------------|
D--------------------------------------------------------|
A----------0-2---2-1---1-0---0---------------------------|
E--0-2-3------3-----2------1-----------------------------|

E--------------------------------------------------------|
B--------------------------------------------------------|
G--------------------------------------------------------|
D--------------------2------------0----------------------|
A----------0-2---2----2--0---2---------------------------|
E--0-2-3------3------------3-----------------------------|

Then they play the same thing only higher. You can play like you want to
I always play it on the A-string.

If you have anything to complain.....................I don?t mind !!!