Apulanta — Anna Mulle Piiskaa

Apulanta
Anna Mulle Piiskaa (Spank me)
Tabbed by: pINCHy (slipkorn_69@hotmail.com)

INTRO:

Am G Em F
|--------0-----3-----------------0-------------1----|
|-----------1-----3-----3-----------0-------1-----1-|
|-----2--------------0--------0--------0h2----------| x2 |--2-----------------------2------------------------|
|---------------------------------------------------|
|---------------------------------------------------|

|---------------------------------------------------|
|---------------------------------------------------| x4
|--2--2--2--2---------------------------------------|
|--2--2--2--2--5--5--5--5--2--2--2--2--2-3--3--3--3-|
|--0--0--0--0--5--5--5--5--2--2--2--2--2-3--3--3--3-|
|--------------3--3--3--3--0--0--0--0--0-1--1--1--1-|



VERSE:

|---------------------------------------------------|
|--------1-----------3-----------0-----------1------|
|-----2-----2-----0-----0-----0-----0-----2-----1---|
|---------------------------------------------------|
|--0------------------------------------------------|
|--------------3-----------0-----------1------------|



|---------------------------------------------------|
|---------------------------------------------------|
|--2--2--2--2---------------------------------------|
|--2--2--2--2--5--5--5--5--2--2--2--2--2-3--3--3--3-|
|--0--0--0--0--5--5--5--5--2--2--2--2--2-3--3--3--3-|
|--------------3--3--3--3--0--0--0--0--0-1--1--1--1-

VERSE 2nd part:

|--------------------------|
|--------3-----------1-----|
|-----0-----0-----2-----2--|
|--------------------------|
|--------------------------|
|--3-----------1-----------|

|--------------------------| |--------0-----3-----------------0-------------1----|
|--------3-----------1-----| |-----------1-----3-----3-----------0-------1-----1-|
|-----0-----0-----2-----2--| |-----2--------------0--------0--------0h2----------|
|--------------------------| |--2-----------------------2------------------------|
|--------------------------| |---------------------------------------------------|
|--3-----------1-----------| |---------------------------------------------------|


CHORUS:

|---------------------------------------------------|
|---------------------------------------------------|
|--2--2--2--2---------------------------------------|
|--2--2--2--2--5--5--5--5--2--2--2--2--2-3--3--3--3-|
|--0--0--0--0--5--5--5--5--2--2--2--2--2-3--3--3--3-|
|--------------3--3--3--3--0--0--0--0--0-1--1--1--1-|




|--------0-----3-----------------0-------------1----|
|-----------1-----3-----3-----------0-------1-----1-|
|-----2--------------0--------0--------0h2----------| x2
|--2-----------------------2------------------------|
|---------------------------------------------------|
|---------------------------------------------------|


Enjoy !