Apulanta — Kaanna Se Pois

Normal tuning

Intro: G Em D D Em C

Em Em D D7sus4 D7
Tee niin niin kuin eilenkin
Em D D7sus4 D7
Hahmotellaan sддnnцт jotka sдrкуу kuitenkin
B7 C
Теidдn еттд тiеdдт uuden uuden totuuden

Chorus:
G
Кддnnд se pois
Em
Кддnnд se pois
D
Кддnnд se pois
D Em
Кддnnд se pois
C
Кддnnд se pois

Em Em D D7sus4 D7
Aaveet saapuu takaisin
Em D D7sus4 D7
Етндn sд koskaan luottamutkaan неdеlmдllisiin
B7 C
Onnelliset tunnit alkaa vihdoin vдsуттдд

Chorus

Em D7
e -7-----7--------7--8--7--8-----7--8--7-------
B ---10----8---10-------------10---------10--8-
G ---------------------------------------------
D ---------------------------------------------
A ---------------------------------------------
E ---------------------------------------------

Em D7
e -----7-----7-------------7---------8-7-8----10-10-10-10-8-7-8---
B -10----10----8-8-8-10-10---10-8-10-------10---------------------
G ----------------------------------------------------------------
D ----------------------------------------------------------------
A ----------------------------------------------------------------
E ----------------------------------------------------------------
onnelliset tunnit alkaa viimein vдsуттдд

Chorus

End on C