Aquabats — 10

Song:#10
Band:aquabats
Album:the newest one they have
tabbed by:chris





G:--------------------------22--------------------------------------|---------
---------------------------------

D:--------22------0--44-------44---------------------------------|-2222-------
--------------------------

A:-0-44------44--------------------0--44-------22-0-----------|---------------
-------------------------

E:----------------------------------------------44---------44-22--|-----------
------------------------------


G:---------------------------------------------------------------
D:-----2222----------------22-0-----------------------------
A:-00----------0-44--------------44-22---------------------
E:-----------------------44-------------------------------------


G:---------------------------------------------------------------
D:-4X44444444---------------------------------------------
A:---------------------------------------------------------------
E:---------------------------------------------------------------

I THINK THAT IS ALL OF IT POST ANOTHER TAB IF SOMEONE FINDS A BETTER WAY TO
PLAY IT CAUSE I AM NOT SURE IF IT IS ALL RIGHT SEE YA LATTER