Arch Enemy — Beast Of Man

На этой странице Вы можете ознакомиться с 2 версиями подбора аккордов для гитары к песне "Beast Of Man" группы (исполнителя) "Arch Enemy".

/---------------------------------------------------------------------------
/ The following is the author's own interpretation of the song, to be used -
/ for studying or private use only, removal of any part of this ten line -
/ header is illegal!!! Removal of the transcribers name or anything -
/ relevant to the transcriber is also illegal, as so is the removal of the -
/ place inwhich the tab was downloaded. Publishing as well as printing of -
/ the tab is illegal without permission of the transcriber and copyright -
/ owner of the song. Failure to apply to these laws result will in legal -
/ action from the appropriate parties. -
/---------------------------------------------------------------------------

ARCH ENEMY - BEAST OF MAN
From the Album STIGMATA
Copyright 1998 W.A.R. (Wrong Again Records)

Version 3.1 - APRIL 2004

Transcribed by: Death8699
Scott King
Brad Goldsworthy

For Questions, Comments, Newest Version, or Corrections contact
Death8699: at ArghEnemies@aol.com

Check Out Death Warp, With More Transcriptions On It:
http://www.deathwarp.com/

.. - palm mute / - slide up to
- slide down to ~ - vibrato
h - hammer on b - bend
p - pull off Suffixes for bend
ph - pinch harmonic
f - full bend h - half bend
* - see comment r - release t - tap bend
X - percussion mute ~ - vibrato bend
@ - slight palm mute () - ghost note, sustained note

Tune Gtr to B

--BEAST OF MAN--

|Riff A|
||----------------------------------------------------------------------|
||----------------------------------------------------------------------|
||*---------------------------------------------------------------------|[Gtrs.1&2]
||*---------------------------------------------------------------------|
||------------------9-9-9-9-10-10-10-10---------------------------------|
||-0-0-0-0-0-0-0-0----------------------6-6-6-6-6-6-6-6-6-6-6-6-6-6-6-6-|


[1,3] [2]
|---------------------------------|------------------------------------||
|---------------------------------|------------------------------------||
|---------------------------------|------------------------------------||[Gtrs.1&2]
|---------------------------------|------------------------------------||
|---------------------------------|------------------------------------||
|-7-7-7-7-7-7-7-7-3-3-3-3-2-2-2-2-|-6-6-6-6-6-6-6-6-6-6-6-6-6-6-6-7-7--||
| [4] ||
|---------------------------------|------------------------------------||
|---------------------------------|------------------------------------||
|---------------------------------|---------------[Rest]--------------*||[Gtrs.1&2]
|---------------------------------|-----------------------------------*||
|---------------------------------|------------------------------------||
|-7-7-7-7-7-7-7-7-7-7-7-7-7-7-----|-7----------------------------------||


Play Riff A a total of 1 time.


|Lead 1|
|----------12~----15-14~----19bf~~---17-15-14-15~--|
|-/12--15------------------------------------------|
|sl------------------------------------------------|[Gtr.3]
|--------------------------------------------------|
|--------------------------------------------------|
|--------------------------------------------------|


|-10bf~~----10bfr-----10bf~-----7------------------|
|-----------------12--------------8----------------|
|-----------------------------------9--7bf---------|[Gtr.3]
|--------------------------------------------------|
|--------------------------------------------------|
|--------------------------------------------------|


|Riff B| [2x]
||-------------------------------------|-------------------------------------|
||-------------------------------------|-------------------------------------|
||*------------------------------------|-------------------------------------|[Gtrs.1&2]
||*------------------------------------|-------------------------------------|
||---------7-7-7-7-9-9-9-9-10-10-10-10-|---------7-7-7-7-9-9-9-9-10-10-10-10-|
||-0-0-0-0-----------------------------|-8-8-8-8-----------------------------|

[1,3] [2,4]
|-------------------------------------|--------------------------------------||
|-------------------------------------|--------------------------------------||
|-------------------------------------|-------------------------------------*||[Gtrs.1&2]
|-------------------------------------|-------------------------------------*||
|-------------------------------------|---------9-9-9-9-7-7-7-7-6-6-6-6------||
|-7-7-7-7-10-10-10-10-8-8-8-8-7-7-7-7-|-7-7-7-7------------------------------||


Play Riff B a total of 1 time.


|Riff B.1| [2x]
||-------------------------------------|-------------------------------------|
||-------------------------------------|-------------------------------------|
||*------------------------------------|-------------------------------------|[Gtr.1]
||*------------------------------------|-------------------------------------|
||---------7-7-7-7-9-9-9-9-10-10-10-10-|---------7-7-7-7-9-9-9-9-10-10-10-10-|
||-0-0-0-0-----------------------------|-8-8-8-8-----------------------------|
|| |
|| [2x] |
||-------------------------------------|-------------------------------------|
||-------------------------------------|-------------------------------------|
||*------------------------------------|-------------------------------------|[Gtr.2]
||*---------9-9-9-9-7-7-7-7-9-9-9-9----|-------------------------------------|
||-------------------------------------|---------7-7-7-7-9-9-9-9-10-10-10-10-|
||-0-0-0-0-----------------------------|-8-8-8-8-----------------------------|

[1,3] [2,4]
|-------------------------------------|-------------------------------------||
|-------------------------------------|-------------------------------------||
|-------------------------------------|------------------------------------*||[Gtrs.1&2]
|-------------------------------------|------------------------------------*||
|-------------------------------------|----------9-9-9-9-7-7-7-7-6-6-6-6----||
|-7-7-7-7-10-10-10-10-8-8-8-8-7-7-7-7-|-7-7-7-7-----------------------------||


Play Riff B.1 a total of 1 time.


|Riff C|
||---------------------------------------------||
||---------------------------------------------||
||---------------------------------------------||
||-5~-0-7-0-8-0---------5~-0-7-0-8-0-----------||[Gtr.1]
||--------------5-6~-----------------5-8~--9~--||
||---------------------------------------------||
|| ||
||---------------------------------------------||
||---------------------------------------------||
||---------------------------------------------||[Gtr.2]
||-12-------------------12-------------10--11--||
||-10-----------13------10-------------8---9---||
||--------------11-----------------------------||


Play Riff C a total of 4 times.


|Riff C.1|
||---------------------------------------------||
||---------------------------------------------||
||---------------------------------------------||
||-5~-0-7-0-8-0---------5~-0-7-0-8-0-----------||[Gtr.1]
||--------------5-6~~----------------5-8~--9~--||
||---------------------------------------------||
|| ||
||---------------------------------------------||
||---------------------------------------------||
||-3~-0-5-0-7-0---------3~-0-5-0-7-0---2~--3~--||[Gtr.2]
||--------------3-5~-----------------5---------||
||---------------------------------------------||
||---------------------------------------------||


Play Riff C.1 a total of 1 time.


Repeat Riff B 2 times.
Repeat Riff A w/1st and 4th endings.
Repeat Riff C 4 times.


|Riff D|
|--------------------------------------------------------------|
|---------------------------------------------8----------------|
|------7-9-10---------7-9-10---------7-9-10-----10-9--10-9-----|[Gtr.1]
|-7-7---------7--8-8---------8--9-9------------------------11--|
|--------------------------------------------------------------|
|--------------------------------------------------------------|
| . . . . . . |
|--------------------------------------------------------------|
|--------------------------------------------------------------|
|--------------------------------------------------------------|[Gtr.2]
|-7-7----------------------------------------------------------|
|-5-5------------8-8------------9-9-------------10-10--11-11---|
|----------------6-6------------7-7--------------8--8---9--9---|


|--------------------------------------------------------------|
|---------------------------------------------6/8-8/10-10~-----|
|------7-9-10---------7-9-10---------7-9-10--------------------|[Gtr.1]
|-7-7---------7--8-8---------8--9-9----------------------------|
|--------------------------------------------------------------|
|--------------------------------------------------------------|
| . . . . . . |
|--------------------------------------------------------------|
|--------------------------------------------------------------|
|--------------------------------------------------------------|[Gtr.2]
|-7-7----------------------------------------------------------|
|-5-5------------8-8------------9-9------------10-10--11-------|
|----------------6-6------------7-7-------------8--8---9-------|


|--------------------------------------------------------------|
|---------------------------------------------8----------------|
|------7-9-10---------7-9-10---------7-9-10-----10-9--10-9-----|[Gtr.1]
|-7-7---------7--8-8---------8--9-9------------------------11--|
|--------------------------------------------------------------|
|--------------------------------------------------------------|
| . . . . . . |
|--------------------------------------------------------------|
|--------------------------------------------------------------|
|--------------------------------------------------------------|[Gtr.2]
|-7-7----------------------------------------------------------|
|-5-5------------8-8------------9-9-------------10-10--11-11---|
|----------------6-6------------7-7--------------8--8---9--9---|


|--------------------------------------------------------------|
|--------------------------------------------------------------|
|------7-9-10---------7-9-10---------7-9-10----Lick at 2:20???-|[Gtr.1]
|-7-7---------7--8-8---------8--9-9----------------------------|
|--------------------------------------------------------------|
|--------------------------------------------------------------|
| . . . . . . |
|--------------------------------------------------------------|
|--------------------------------------------------------------|
|--------------------------------------------------------------|[Gtr.2]
|-7-7----------------------------------------------------------|
|-5-5------------8-8------------9-9-------------10-10--11------|
|----------------6-6------------7-7--------------8--8---9------|


Play Riff D a total of 2 times.


|Riff E|
|---------------------------------------------------------------|
|---------------------------------------------------------------|
|--------10-----10--------6-----6--------7-----7--------8-----9-|[Gtr.1]
|---------------------------------------------------------------|
|-88888-----888-----44444---444----55555---555----66666---666---|
|---------------------------------------------------------------|
| ..... ... ..... ... ..... ... ..... ... |
| |
|---------------------------------------------------------------|
|-------------------------6-----6--------6-----6--------8----8--|
|--------10-----10----------------------------------------------|[Gtr.2]
|---------------------------------------------------------------|
|-88888-----888-----44444---444----55555---555----66666---666---|
|---------------------------------------------------------------|
..... ... ..... ... ..... ... ..... ...


|---------------------------------------------------------------|
|---------------------------------------------------------------|
|--------10-----10--------6-----6--------7-----7--------8-----9-|[Gtr.1]
|---------------------------------------------------------------|
|-88888-----888-----44444---444----55555---555----66666---666---|
|---------------------------------------------------------------|
| ..... ... ..... ... ..... ... ..... ... |
| |
|---------------------------------------------------------------|
|---------9------9--------6-----6--------6-----6--------8----8--|
|---------------------------------------------------------------|[Gtr.2]
|---------------------------------------------------------------|
|-88888-----888-----44444---444----55555---555----66666---666---|
|---------------------------------------------------------------|
..... ... ..... ... ..... ... ..... ...


Play Riff E a total of 4 times.


|Lead 2|
|23bfr-22-20-19---------------------------------------------------15-17-19-|
|---------------22~---12-13-12_13_12-10-------15-15-17~--15-17-18----------|
|-----------------------------h--p------12-10------------------------------|[Gtr.3]
|--------------------------------------------------------------------------|
|--------------------------------------------------------------------------|
|--------------------------------------------------------------------------|


|-20-19-16/17-19-17---11bf-9-8-7_8_7_8---------17-19-20-19-17-19-17_19_17--|
|-------------------------------h-p-h--10/--17---------------------h--p----|
|--------------------------------------------------------------------------|[Gtr.3]
|--------------------------------------------------------------------------|
|--------------------------------------------------------------------------|
|--------------------------------------------------------------------------|


|----17~--------17-19-20-19-20-22-20-19~--15_17-15_17-15_17-15_17-15_17----|
|-20---------17-----------------------------h-----h-----h-----h-----h------|
|--------------------------------------------------------------------------|[Gtr.3]
|--------------------------------------------------------------------------|
|--------------------------------------------------------------------------|
|--------------------------------------------------------------------------|


|-20-22-23bf-23bf-23bf-20_22_23_22-----------------------------------------|
|------------------------h--h--p---22~-------------------------------------|
|--------------------------------------------------------------------------|[Gtr.3]
|--------------------------------------------------------------------------|
|--------------------------------------------------------------------------|
|--------------------------------------------------------------------------|


|Riff F|
|--------------------------------------------------------|
|--------------------------------------------------------|
|--------------------------------------------------------|[Gtrs.1&2]
|-9/10--97-------------------9/10--97---------7-7---9--|
|-------------3-----5-5---7---------------3-----5-5---7--|
|-7/-8--75---1-----3-3---5---7/-8--75---1--------------|
| |
| |
|--------------------------------------------------------|
|--------------------------------------------------------|
|--------------------------------------------------------|[Gtrs.1&2]
|-9/10--97-------------------9/10--97---------7-7------|
|-------------3-----5-5---7---------------3-----5-5---7--|
|-7/-8--75---1-----3-3---5---7/-8--75---1-----------5--|


Play Riff F a total of 2 times.


Repeat Riff C 4 times w/Fill 1.


|Fill 1|
||----------------------------------||
||----------------------------------||
||----------------------------------||
||-5~-0-7-0-8-0---------------------||[Gtr.1]
||--------------5-8~---------5(5)--||
||----------------------8~---3(3)--||
|| ||
||----------------------------------||
||----------------------------------||
||-3~-0-5-0-7-0---------------------||[Gtr.2]
||--------------5-7~----------------||
||----------------------7~---5(5)--||
||---------------------------3(3)--||


Play Fill 1 a total of 1 time.
End!

Check Out Death Warp, With More Transcriptions On It:
http://www.deathwarp.com/
ARCH ENEMY - Beast Of Man (SOLO)
From the Album STIGMATA
Version 1.0 - JANUARY 2001

Transcribed by: Brad Goldsworthy (goldie123@start.com.au)

For Questions, Comments, Newest Version, or Corrections contact me

Check Out Death Warp, With More Transcriptions On It:
http://tiger.towson.edu/~dalvis1

.. - palm mute / - slide up to
- slide down to ~ - vibrato
h - hammer on b - bend
p - pull off Suffixes for bend
ph - pinch harmonic
f - full bend h - half bend
* - see comment r - release t - tap bend
X - percussion mute ~ - vibrato bend
@ - slight palm mute () - ghost note, sustained note

ARCH ENEMY - Beast Of Man

Tune to B

Mike's solo at 2:46
|23bfr-22-20-19---------------------------------------------------15-17-19-
|---------------22~---12-13-12h13p12-10-------15-15-17~--15-17-18----------
|---------------------------------------12-10------------------------------
|--------------------------------------------------------------------------
|--------------------------------------------------------------------------
|--------------------------------------------------------------------------



|-20-19-16/17-19-17---11bf-9-8-7h8p7h8---------17-19-20-19-17-19-17h19p17-
|--------------------------------------10/--17----------------------------
|-------------------------------------------------------------------------
|-------------------------------------------------------------------------
|-------------------------------------------------------------------------
|-------------------------------------------------------------------------



|----17~--------17-19-20-19-20-22-20-19~--15h17-15h17-15h17-15h17-15h17---
|-20---------17-----------------------------------------------------------
|-------------------------------------------------------------------------
|-------------------------------------------------------------------------
|-------------------------------------------------------------------------
|-------------------------------------------------------------------------



|-20-22-23bf-23bf-23bf-20h22h23p22----------------------------------------
|----------------------------------22~------------------------------------
|-------------------------------------------------------------------------
|-------------------------------------------------------------------------
|-------------------------------------------------------------------------
|-------------------------------------------------------------------------

Check Out Death Warp, With More Transcriptions On It:
http://tiger.towson.edu/~dalvis1