Arch Enemy — Black Earth

ARCH ENEMY - BLACK EARTH
From the Album STIGMATA
Copyright 1998 CENTURY MEDIA
Version 2.0 - MAY 2001

Transcribed by: Haris Durakovic
Slight correction by: death8699

For Questions, Comments, Newest Version, or Corrections contact
Haris Durakovic: at foreverlorn@gmx.de
death8699: at archenemies@aol.com

Check Out Death8699.com With More Transcriptions at:
http://www.death8699.com




.. - palm mute / - slide up to
- slide down to ~ - vibrato
h - hammer on b - bend
p - pull off Suffixes for bend
ph - pinch harmonic
f - full bend h - half bend
* - see comment r - release t - tap bend
X - percussion mute ~ - vibrato bend
@ - slight palm mute () - ghost note, sustained note

Tune guitar to B

--BLACK EARTH--


Riff A (with keyboards)
|--------------------------------------------------------------------|
|--------------------------------------------------------------------|
|--------------------------------------------------------------------|Gtr
|-66666666666666668888888888888888-----------------------------------| I
|---------------------------------77777777777777777777777777777777---|
|--------------------------------------------------------------------|
| | Repeat
|--------------------------------------------------------------------|
|--------------------------------------------------------------------|
|--------------------------------------------------------------------|Gtr
|-2------------------------------------------------------------------| II
|-2------------------------------------------------------------------|
|-0------------------------------------------------------------------|


|--------------------------------------------------------------------|
|--------------------------------------------------------------------|
|--------------------------------------------------------------------|Gtr
|--------------------------------------------------------------------| I
|-5555555555555555555555555555555577777777777777777777777777777777---|
|--------------------------------------------------------------------|
| |
|--------------------------------------------------------------------|
|--------------------------------------------------------------------|
|--------------------------------------------------------------------|Gtr
|-2------------------------------------------------------------------| II
|-2------------------------------------------------------------------|
|-0------------------------------------------------------------------|


Riff B (both guitars) repeat
|--------------------------------------------------------------------|
|--------------------------------------------------------------------|
|--------------------------------------------------------------------|
|--------------------------------------------------------------------|
|-11---11-----11---13---13-----13---7---7-----7---7---7-----7--------|
|---000---0-0----0---000---0-0----0--000--0-0---0--000--0-0---0------|
... . . . ... . . . ... . . . ... . . .


Riff C
|--------------------------------------------------------------------|
|--------------------------------------------------------------------|
|-13---13-----13---15---15-----15---9---9-----9---9---9-----9--------|
|--------------------------------------------------------------------|
|-11---11-----11---13---13-----13---7---7-----7---7---7-----7--------|
|---000---0-0----0---000---0-0----0--000--0-0---0--000--0-0---0------|
... . . . ... . . . ... . . . ... . . .


Riff D
|----------------------|
|----------------------|
|-7------7-7-7/7-9-9-9-|
|-7------7-7-7/7-9-9-9-|
|-5------5-5-5/5-7-7-7-|
|-5------5-5-5/5-7-7-7-|


Chorus
|--------------------------------------------------------------------|
|--------------------------------------------------------------------|
|----------------------------------7--7--7--7--7--7--7--7------------|
|-12--14--15--14--12--14--15--14---------6--6--------6--6------------|
|----------------------------------5--5--7--7--5--5--7--7------------|
|---00--00--00--00--00--00--00--00-----------------------------------|
.. .. .. .. .. .. .. ..


Break
|-------------|
|-------------|
|-4---------3-|
|-4----4----3-|
|-2----4----1-|
|------2------|
hold-------|


Rhythm on solo
|-------------------------------------------------------|
|-------------------------------------------------------|
|-9----9-7-7-5-5----5-4-4-2-2---------------------------|
|-9----9-7-7-5-5----5-4-4-2-2---------------------------|
|-7----7-5-5-3-3----3-2-2-0-0------------0-2~----9h10p9-|
|--------------------------------2~--2-3----------------|
. . .


Rhythm on second solo
|--------------------------------------------------|
|--------------------------------------------------|
|-9--4--5----5--2--4----9--4--5----5--2--4---------|
|-9--4--5----5--2--4----9--4--5----5--2--4---------|
|-7--2--3----3--0--2----7--2--3----3--0--2--0------|
|---------------------------------------------3-1~-|


Riff E
|-----------------------------|
|-----------------------------|
|-----------------------------|
|-----------------------------|
|-2~--0-------2~--0-----------|
|-------3-1~--------3-1~--1-1-|
. .

Check Out Death8699.com With More Transcriptions at:
http://www.death8699.co