Arch Enemy — Bridge Of Destiny

ARCH ENEMY - BRIDGE OF DESTINY
From The Album STIGMATA
Copyright 1998 W.A.R.

Version 2.0 - APRIL 2001

Original Tab by: Scott King
Few Corrections by: death8699

For Questions, Comments, Newest Version, or Corrections contact
death8699 at: archenemies@aol.com

Check Out DEATH8699.COM With More Transcriptions at:
http://www.death8699.com

Tablature Notation
------------------
. - palm mute / - slide up to
- slide down to ~ - vibrato
h - hammer on b - bend
p - pull off Suffixes for bend
ph - pinch harmonic f - full bend h - half bend
* - see comment r - release t - tap bend
X - percussion mute ~ - vibrato bend
@ - slight palm mute () - ghost note, sustained note

Tune Down 2.5 steps to B

RIFF 1 W/FILL 1 4TH TIME
|--------------------------------------------------------------------|
|--------------------------------------------------------------------|
|--------------------------------------------------------------------|
|-----10p7---9p6---10p7-----10p7---9p6---10~~------10p7---9p6---10p7-|
|-000------0-----0------000------0-----0-------000------0-----0------|
|--------------------------------------------------------------------|
... . . ... . . ... . .


CON'T 4 TIMES
|-------------------|
|-------------------|
|-------------------|
|-----10p7-----10p7-|
|-888------777------|
|-------------------|
... ...


FILL 1
|-------------------|
|-------------------|
|-------------------|
|-----10-7-----10--|
|-888------777------|
|-------------------|
... ...


RIFF 2 PLAY 4 TIMES
|-------------------------------------|
|-------------------------------------|
|-------------------------------------|
|-------------------------------------|
|-----------------------------8---8--|
|-0-00-00-0-00-00-0-00-00--00-6-0-6--|
. .. .. . .. .. . .. .. .. .


RIFF 2.A 1-3.-------|4.---------|
|-------------------------------------|-----------|
|-------------------------------------|-----------|
|-------------------------------------|-----------|
|-------------------------------------|-----------|
|-----------------------------8---8--|----8------|
|-0-00-00-0-00-00-0-00-00--00-6-0-6--|-00-6-0-X-|
.. . .. .


RIFF 3
|-----------------------------------------------------|
|-----------------------------------------------------|
|-----------------------------------------------------|
|-------7--6--------------7--6-------------7--6-------|
|---7-8------7-8-5----7-8------7-8~----7-8------7-8-5-|
|-0-----------------0----------------0----------------|
. . . . . . . . . . . . . . . . . . . . .


CON'T 2 TIMES
|-----------------|
|-----------------|
|-----------------|
|-----------------|
|-7---5----3-2----|
|---8---7------4~-|
. . . . . .


RIFF 3.A
|------------------------------------------------------------|
|------------------------------------------------------------|
|------------------------------------------------------------|
|--------7--6----------------7--6----------------7--6--------|
|---7-8-------7--8-5----7-8-------7--8~----7--8-------7--8-5-|
|-0-------------------0------------------0-------------------|
. . . . . . . . .


CON'T 2 TIMES
|------------------------|
|------------------------|
|------------------------|
|------------------------|
|-7-----5------3--2------|
|----8-----7---------4~--|


PLAY RIFF 1 2 TIMES
PLAY RIFF 2 4 TIMES
PLAY RIFF 2.A 4 TIMES
PLAY RIFF 3 2 TIMES
PLAY RIFF 3.A 2 TIMES


RIFF 4 PLAY 12 TIMES
|------------------------------------------|
|------------------------------------------|
|------------------------------------------|
|------10------7---------------------------|
|-------8------5------8------555777--------|
|-0000----0000---0000-6-0000--------888-7--|
.... .... .... .... ...... ... .


RIFF 5 PLAY 4 TIMES
|--------------------------------------------------|
|--------------------------------------------------|
|--------------------------------------------------|
|--------------3------------------------------4-3--|
|-3-2--2-2--2--1-2--2-2--2--3-2--2-2--2--5-4--2-1--|
|-1-0--0-0--0----0--0-0--0--1-0--0-0--0--3-2-------|


RIFF 5.A PLAY 4 TIMES
|-----------------------------------------------------------------|
|-----------------------------------------------------------------|
|-----------------------------------------------------------------|
|-------------------3----------------------------------------4-3--|
|-3-2---------------1-2---------------3-2---------------5-4--2-1--|
|-1-0--000000000000---0--000000000000-1-0--000000000000-3-2-------|
............ ............ ............


PLAY RIFF 2 4 TIMES
PLAY RIFF 2.A 4 TIMES
PLAY RIFF 3 2 TIMES
PLAY RIFF 3.A 2 TIMES


RIFF 6
|----------------------------------------------------------|
|----------------------------------------------------------|
|---------9----------9-----------5-----------5-------------|
|---------9----------9-----------5-----------5-------------|
|---------7----------7----3-3333-3----3-3333-3----------4--|
|--0-0000-----0-0000-----------------------------2-2222-2--|
. .... . .... . .... . .... . ....

CON'T 1, 2.----------------|3.---------------|
|-------------------------------|-----------------|
|-------------------------------|-----------------|
|-------------------------------|-----------------|
|----------4------4------4------|-4------4------4-|
|-------4--2-2222-2-2222-2-2222-|-2-2222-2-2222-2-|
|2-2222-2-----------------------|-----------------|
. .... .... .... .... .... ....


4.---------|
|----------|
|----------|
|----------|
|-4--5--4--|
|-2--3--2--|
|----------|


RIFF 7
|---------------------------------------------------------------|
|-------7--8--7H8P7------------------------5--7--5h7p5----------|
|----9---------------9-----7--5-5~------7--------------7-5--3bh~|
|-9---------------------9------------7--------------------------|
|---------------------------------------------------------------|
|---------------------------------------------------------------|
. . . . .

CON'T 2 TIMES
|---------------------------------------------------------------|
|-------7--8--7H8P7-------------------------5-7--5h7p5----------|
|----9--------------9----10bf-10-10~-----7-------------7-5--8bh~|
|-9-------------------9---------------7-------------------------|
|---------------------------------------------------------------|
|---------------------------------------------------------------|
. . . . .


*RIFF 8 PLAY 12 TIMES
|-------------------------------------------|
|-------------------------------------------|
|-------------------------------------------|
|-5------7-----------------9-----7--7----5--|
|-3------5-------2---------7-----5--5----3--|
|----------------0--------------------------|


*THIS RIFF IS PLAYED A TOTAL OF 12 TIMES
OVER RIFF 7, THE SOLO, RIFF 7 AGAIN, AND
ENDS WITH THE OUTRO.*

Solo W/RIFF 8
RIFF 7 PLAY 1 TIME W/RIFF 8


OUTRO
|---------------------------------------------------------------|
|-------7--8--7H8P7------------------------5--7--5h7p5----------|
|----9---------------9-----7--5-5~------7--------------7-5--3bh~|
|-9---------------------9------------7--------------------------|
|---------------------------------------------------------------|
|---------------------------------------------------------------|
. . . . .

CON'T
|---------------------------------------------------------------|
|-------7--8--7H8P7-------------------------5-7--5h7p5-----7br~-|
|----9--------------9----10bf-10-10~-----7-------------7-5------|
|-9-------------------9---------------7-------------------------|
|---------------------------------------------------------------|
|---------------------------------------------------------------|
. . . . .


Check Out DEATH8699.COM With More Transcriptions at:
http://www.death8699.co