Arch Enemy — Demoniality

Arch Enemy - Demoniality
From the Album Black Earth
Copyright 1996 Wrong Again Records
Version 1.0 - January 2001

Version 1 Transcribed by: Brian Josephs
Version 2 Transcribed by: Neal Oliver

For Questions, Comments, Newest Version, or Corrections contact
Brain: at AKndOfMgic@aol.com
Neal: shoveit@cableone.net

Check Out Death Warp, With More Transcriptions On It:
http://tiger.towson.edu/~dalvis1

.. - palm mute / - slide up to
- slide down to ~ - vibrato
h - hammer on b - bend
p - pull off Suffixes for bend
ph - pinch harmonic
f - full bend h - half bend
* - see comment r - release t - tap bend
X - percussion mute ~ - vibrato bend
@ - slight palm mute () - ghost note, sustained note

Tune Gtr to B (2.5 steps down)

Demoniality - VERSION 1

Riff A
|--------------------------------------------------------------------|
|--------------------------------------------------------------------|
|--------------------------------------------------------------------|Gtr
|-2------------------------------------------------------------------| I
|-2----2-------------------------------------------------------------|
|-0--x-0--/3-2~--3-2-/7-6~--7-6-3-2~--3-2~---3-3---------------------|
| . . . |
|--------------------------------------------------------------------|
|--------------------------------------------------------------------|
|--------------------------------------------------------------------|Gtr
|-2------------------------------------------------------------------| II
|-2----2-------------------------------------------------------------|
|-0----0--/3-2~--3-2-/7-6~--7-6-3-2~--3-2~---3-3---------------------|


Demoniality - VERSION 2

RIFF 1 Play about 9.5 times w/keyboard effects starting midway through

|--------------------------------------------------------------------|
|--------------------------------------------------------------------|
|--------------------------------------------------------------------|
|--------------------------------------------------------------------|
|-2-(2)(2)--------------2--1~--2--1--------------222-2---------------|
|-0--0--0---3--2--3--2---------------3--2--3--2--000-0---------------|
. ... .

. .
Check Out Death Warp, With More Transcriptions On It:
http://tiger.towson.edu/~dalvis1