Arch Enemy — Eureka

A R C H  E N E M Y  -  E U R E K A
From the Album BLACK EARTH
Copyright 1996 W.A.R.

Version 2.0 - MAY '02

Transcribed by: death8699
Few Corrections by: Bobby Rafuse

For Questions, Comments, Newest Version, or Corrections contact
death8699: at ArchEnemies@aol.com
Bobby: at metal_music69@hotmail.com

Check Out Death8699.com With More Transcriptions at:
http://www.death8699.com




. - palm mute / - slide up to
- slide down to ~ - vibrato
h - hammer on b - bend
p - pull off Suffixes for bend
ph - pinch harmonic f - full bend h - half bend
* - see comment r - release t - tap bend
X - percussion mute ~ - vibrato bend
@ - slight palm mute () - ghost note, sustained note

Tune Gtr to B

--EUREKA--

[Riff A]
[----------------------|----------------------]
[----------------------|----------------------]
[*---------------------|---------------------*]GTRS I&II
[*-22-2-55-5-----------|-22-2-55-5-----------*]
[--00-0-33-3-55-5-33-3-|-00-0-33-3-33-3-55-5--]
[------------33-3-11-1-|-----------11-1-33-3--]

[----------------------|----------------------]
[----------------------|----------------------]
[*---------------------|---------------------*]GTRS I&II
[*-22-2-55-5-----------|-22-2-55-5-----------*]
[--00-0-33-3-33-3-55-5-|-00-0-33-3-55-5-33-3--]
[------------11-1-33-3-|-----------33-3-11-1--]


[Riff A.1] --Palm mute every note in this entire riff!--
[----------------------------------|-----------------------------------]
[----------------------------------|-----------------------------------]
[*---------------------------------|----------------------------------*]GTRS I&II
[*---------------------------------|----------------------------------*]
[--0-0-0-0-0-0-0-0-3-3-3-3-3-3-3-3-|-----------------------------------]
[--|_____________16______________|-|-3-3-3-3-3-3-3-3-1-1-1-1-1-1-1-1---]
|_____________16______________|

[----------------------------------|-----------------------------------]
[----------------------------------|-----------------------------------]
[*-----------9--7------------------|---------------------------7------*]GTR III
[*-7--9--10--------10------------9-|7------------109----7-9-10---109--*]
[----------------------7--9--10----|--10-9-10-12-----12----------------]
[----------------------------------|-----------------------------------]

[----------------------------------|-----------------------------------]
[----------------------------------|-----------------------------------]
[*---------------------------------|----------------------------------*]GTRS I&II
[*---------------------------------|----------------------------------*]
[--0-0-0-0-0-0-0-0-3-3-3-3-3-3-3-3-|-----------------------------------]
[--|_____________16______________|-|-1-1-1-1-1-1-1-1-3-3-3-3-3-3-3-3---]
|_____________16______________|

[----------------------------------|-----------------------------------]
[----------------------------------|-----------------------------------]
[*-----------9--7------------------|----------------------------------*]GTR III
[*-7--9--10--------10------------9-|7------------109------------1210--*]
[----------------------7--9--10----|--10-9-10-12-----12-10-12-14----14-]
[----------------------------------|-----------------------------------]

[----------------------------------|-----------------------------------]
[----------------------------------|-----------------------------------]
[*---------------------------------|----------------------------------*]GTRS I&II
[*---------------------------------|----------------------------------*]
[--0-0-0-0-0-0-0-0-3-3-3-3-3-3-3-3-|-----------------------------------]
[--|_____________16______________|-|-1-1-1-1-1-1-1-1-3-3-3-3-3-3-3-3---]
|_____________16______________|

[----------------------------------|-----------------------------------]
[----------------------------------|-----------------------------------]
[*-----------9--7------------------|---------------------------7------*]GTR III
[*-7--9--10--------10------------9-|7------------109----7-9-10---109--*]
[----------------------7--9--10----|--10-9-10-12-----12----------------]
[----------------------------------|-----------------------------------]

[----------------------------------|-----------------------------------]
[----------------------------------|-----------------------------------]
[*---------------------------------|----------------------------------*]GTRS I&II
[*---------------------------------|----------------------------------*]
[--0-0-0-0-0-0-0-0-3-3-3-3-3-3-3-3-|-----------------------------------]
[--|_____________16______________|-|-3-3-3-3-3-3-3-3-1-1-1-1-1-1-1-1---]
|_____________16______________|

[----------------------------------|-----------------------------------]
[----------------------------------|-----------------------------------]
[*-----------9--7------------------|----------------------------------*]GTR III
[*-7--9--10--------10------------9-|7------------109-----------7------*]
[----------------------7--9--10----|--10-9-10-12-----10-7-9-10---109---]
[----------------------------------|-----------------------------------]


[Riff B]
[----------------------------|---------------------------]
[----------------------------|---------------------------]
[*---------------------------|--------------------------*]GTRS I&II
[*---------------------------|--------------------------*]
[--1_0-------1_0-------1_0---|-3_0------3_0------3_0-----]
[---p---3-3---p---3-3---p--3-|--p---1-1--p---1-1--p--1---]
. . . . . . . . . .

[2tx]
[----------------------------|---------------------------]
[----------------------------|---------------------------]
[*---------------------------|--------------------------*]GTRS I&II
[*---------------------------|------------------3/4~----*]
[--1_0------1_0-------1_0----|-3_0------3_0--------------]
[---p---3-3--p---3-3---p--3--|--p---1-1--p--1-1-1/2~-----]
. . . . . . . . . sl


[Riff C]
[-------------------------|--------------------------------]
[-------------------------|--------------------------------]
[*------------------------|-5--5----7----8--8---10/1210--*]GTRS I&II
[*------------------------|-------------------------------*]
[--5--5----7----8--8------|-3--3----5----6--6----8/10 8---]
[--3--3-xx-5----6--6--xx--|------xx-----------x--sl--sl----]

[2tx]
[-------------------------|--------------------------------]
[-------------------------|--------------------------------]
[*------------------------|-------------------------------*]GTRS I&II
[*------------------------|-------------------------------*]
[--5--5----7----8--8------|-3-3-3-3------3-3-3-3-----------]
[--3--3-xx-5----6--6--x--|----------2~-----------2~-------]
sl . . . . . . . .


Riff B [2tx]
Riff C [2tx]
Riff A [1tx]
Riff A.1 [1tx]
Riff B [2tx]
Riff C [2tx]
Riff A [1tx]
Riff A.1 [1tx]


[Riff D] --Over solo-- [4tx]
[----------------------------|------------------------------------]
[----------------------------|------------------------------------]
[*-97/9----------97/9---12-|---97/9----------97/9----------7-*]GTRS I&II
[*---------------------------|--------------------------9--10----*]
[--75/7----------75/7---10-|---75/7----------75/7----------5--]
[----sl--6666-0-----sl--0----|-0---sl--6666-0-----sl----7--8------]
.... . . ....


[Riff E]* --Over solo--
[----------------------------|----------------------------]
[----------------------------|----------------------------]
[*---------------------------|---------------------------*]GTRS I&II
[*---------------------------|-5-------5---7---7---------*]
[--3-------3---5---5---------|-3-3-3-3-3-3-5---5---5-5-5--]
[--1-1-1-1-1-1-3---3---3-3-3-|----------------------------]
. . . . . . . . . . . . . .

[2tx]
|----------------------------|----------------------------]
|----------------------------|----------------------------]
|----------------------------|---------------------------*]GTRS I&II
|---------5------------------|---------------------------*]
|-3-------3-3-3-5-----7------|-7-----7-----7-----7--------]
|-1-1-1-1-------3-3-3-5---5-5|-5-5-5-5-5-5-5-5-5-5-5-5----]
. . . . . . . . . . . . . . . . .

____________________________________
[* = Last time play different ending.]
[____________________________________]


Riff B [2tx]
Riff C [2tx]
Riff A [1tx]
Riff A.1 [1tx]
End!

Check Out Death8699.com With More Transcriptions at:
http://www.death8699.co