Arch Enemy — Fields Of Desolation

ARCH ENEMY - FIELDS OF DESOLATION
From the Album BLACK EARTH
Copyright 1996 W.A.R (WRONG AGAIN RECORDS)
Version 2.0 - AUGUST 2001

Transcribed by: Scott King
Addition by: death8699

For Questions, Comments, Newest Version, or Corrections contact
Scott: jameking@infoave.net
death8699: unhollowed@aol.com

. - palm mute / - slide up to
- slide down to ~ - vibrato
h - hammer on b - bend
p - pull off Suffixes for bend
ph - pinch harmonic f - full bend h - half bend
* - see comment r - release t - tap bend
X - percussion mute ~ - vibrato bend
@ - slight palm mute () - ghost note, sustained note

Tune Down 2.5 steps to B

FIELDS OF DESOLATION

Riff 1 Play 2 times
|----------------------------------------------------------------------|
|----------------------------------------------------------------------|GTRS
|----------------------------------------------------------------------|1&2
|----------------------------------------------------------------------|
|----2-----2--------9-----9--------2-----2--------9-----9--------2-----|
|-0--0-000-0-000-7--7-777-7-777-0--0-000-0-000-7--7-777-7-777-0--0-000-|
| ... ... ... ... ... ... ... ... ...
|
|
|------------------------------------------------------|
|------------------------------------------------------|END
|------------------------------------------------------|RIFF
|------------------------------------------------------| 1
|-2-------10----10----9-----9--------9-----------------|
|-0-000-8--8-888-8-7--7-777-7-777-7--7-777--7---5---3--|
... ... ... ... ...

Riff 2 Play 2 Times
|-------------------------------0----------0-------|
|---------------------------------0----------0-----|GTRS
|-----------------------------------3----------3---|1&2
|--------------------------------------------------|
|----4---5-------4---5-------2----------2----------|
|-2~--222-222-2~--222-222----0----------0----------|
... ... ... ...

Play Riff 1 2 Times
Play Riff 2 2 Times

Riff 3 Play 2 Times
|--------------------------------------------------------------|
|--------------------------------------------------------------|GTR
|----9--11--12------12--11--9------11--12--14------14--12--13--| 1
|-9-------------10-------------12--------------13--------------|
|--------------------------------------------------------------|
|--------------------------------------------------------------|
|
|
|--------------------------------------------------------------|
|--------------------------------------------------------------|GTR
|-9----------------------------12------------------------------| 2
|-9-------------10-------------12---------------9--------------|
|-7-------------10-------------10---------------9--------------|
|---------------8-------------------------------7--------------|

|----------------------------------------------|
|----------------------------------------------|GTR
|----9--11--12------12--11--9--8~--9-8---------| 1
|-9-------------10---------------------10--9~--|
|----------------------------------------------|
|----------------------------------------------|
|
|
|----------------------------------------------|
|----------------------------------------------|GTR
|-9--------------------------------------------| 2
|-9-------------10-------------9-----------9---|
|-7-------------10-------------9-----------9---|
|---------------8--------------7-----------7---|
END RIFF 3


Riff 4 Play 1 Time
|-----------------------------------------------------------------------|
|-----------------------------------------------------------------------|GTR
|-----------5-----6-----------------------6-----7---8-------------6-----| 1
|--7---8----5-----6-----7-----------------6-----------------------6-----|
|-----------3--7--4---------8----7-----7--4--------------7-----7--4-----|
|--------------5-----------------5---5-5-----------------5---5-5--------|
| . .
|
|-----------------------------------------------------------------------|
|-----------------------------------------------------------------------|GTR
|--7--------5-----6-----7-----------------6-----7-----------------6-----| 2
|--7---8----5-----6-----7-----------------6-----7----8------------6-----|
|--5---5----3--7--4-----5---8----7-----7--4-----5----5---7-----7--4-----|
|--------------5------------6----5---5-5-----------------5---5-5--------|
. .

|-----------------------|
|-----------------------|GTR
|-------------------p.h.| 1
|--7-----------------4--|
|------8----7-----7-----|
|-----------5---5-5-----|
| . |
| |
|-----------------------|
|-----------------------|GTR
|--7-----------------6--| 2
|--7-----------------6--|
|--5---8----7-----7--4--|
|------6----5---5-5-----|
.
END RIFF 4

Play Riff 1 2 Times
Play Riff 2 2 Times
Play Riff 3 2 Times
Play Riff 4 1 Time
Play Riff 1 2 Times
Play Riff 2 2 Times
Play Riff 3 2 Times
Play Riff 4 1 Time

Rhythm over solo til fade
|---------------------------------------------------------|
|---------------------------------------------------------|
|---------------------------------------------------------|
|---------------------------------------------------------|
|-7-777-777-777---------------5-555-555-555---------------|
|---------------5-555-555-555---------------3-333-333-333-|
| . ... ... ... . ... ... ... . ... ... ... . ... ... ...
|
|
|-------------------------------------------------------------|
|-------------------------------------------------------------|
|-------------------------------------------------------------|
|-------------------------------------------------------------|
|-3-333-333-333---------------2-222-222-222-------------------|
|---------------2-222-222-222---------------5-555-3-333-2-222-|
. ... ... ... . ... ... ... . ... ... ... . ... . ... . ...