Arch Enemy — Hydra

ARCH ENEMY - HYDRA
From the Album BURNING BRIDGES
Copyright 1999 - CENTURY MEDIA
Version 1.0 - NOVEMBER 1999

Transcribed by: Haris Durakovic (foreverlorn@gmx.de)

For Questions, Comments, Newest Version, or Corrections contact me

Check Out Death Warp, With More Transcriptions On It:
http://tiger.towson.edu/~dalvis1

.. - palm mute / - slide up to
- slide down to ~ - vibrato
h - hammer on b - bend
p - pull off Suffixes for bend
ph - pinch harmonic
f - full bend h - half bend
* - see comment r - release t - tap bend
X - percussion mute ~ - vibrato bend
@ - slight palm mute () - ghost note, sustained note

Tune guitar to BEADGb

Hydra

all played clean

|-------0------------8-----------0-----------0-|
|-------0------------8-----------0-----------0-|
|-----9-9--------10-10-------12-12-------10-10-|
|---7---9-----10----10-----9----9------7----7--|
|-0---------0------------0-----------0---------|
|----------------------------------------------|


|---------0---------------0---------------0---------------0-------|
|-----3-----3---------3-----3---------3-----3---------3-----3-----|
|-------4-----4---------4-----4---------4-----4---------4-----4---|
|---4-----------4---4-----------4---4-----------4---4-----------4-|
|-2-----------------------------------------------0---------------|
|-----------------2---------------3-------------------------------|


|---------0---------------0---------------------------------0-|
|-----3-----3---------3-----3-------------0---------------0---|
|-------4-----4---------4---------------0---0-----------2-----|
|---4-----------4---4-----------------2-------2-------3-------|
|-2---------------------------------2-----------2---3---------|
|-----------------2-----------3-2-0---------------1-----------|


Lead moog transcribed for guitar
|----------------------------------------------------------------|
|-15bfrbf-12h13h15-8bfrbf-13bfrbf--------15bfrbf-12h13h15-8bfrbf-|
|---------------------------------8bhrbh-------------------------|
|----------------------------------------------------------------|
|----------------------------------------------------------------|
|----------------------------------------------------------------|

|--------------------22-21----19----------------|
|-13-12-----------19-------22----19-15-17/19-14-|
|-------12-14~----------------------------------|
|-----------------------------------------------|
|-----------------------------------------------|
|-----------------------------------------------|

|----22-21----19-------------------|
|-19-------22----19-15-17/19-15bh~-|
|----------------------------------|
|----------------------------------|
|----------------------------------|
|----------------------------------|


Check Out Death Warp, With More Transcriptions On It:
http://tiger.towson.edu/~dalvis1