Arch Enemy — Let The Killing Begin

ARCH ENEMY - LET THE KILLING BEGIN
From the Album STIGMATA
Copyright 1998 W.A.R

Version 1.0 - APRIL 2001

Transcribed by: death8699 and Adam Scott
Checked by and minor corrections from: Mike O'Neil

For Questions, Comments, Newest Version, or Corrections contact
death8699: at archenemies@aol.com
Adam Scott: at http://www.evesbringer.com
Mike O'Neil: at mike@dsrmusic.com

Check Out Death8699.com With More Transcriptions at:
http://www.death8699.com




.. - palm mute / - slide up to
- slide down to ~ - vibrato
h - hammer on b - bend
p - pull off Suffixes for bend
ph - pinch harmonic
f - full bend h - half bend
* - see comment r - release t - tap bend
X - percussion mute ~ - vibrato bend
@ - slight palm mute () - ghost note, sustained note

*Transcriber's Note: This song is transcribed for rhythm guitar only.
Timing is approximate..Get the exact timing by listening to the song
repeatedly.*

Tune Gtr to B

LET THE KILLING BEGIN

Riff A 1-3------------|4.-----|
|------------------------------------------------------------------|-------|
|------------------------------------------------------------------|-------|
|------------------------------------------------------------------|-------|
|------------------/10--9----------------------------/10-----8-7-5-|-----5-|
|-3--2----/8-7-5---/8---7---/8-7-5---3--2----8-7-5-------8---------|-------|
|-1--0-0--/6-5-3-0--------0-/6-5-3-0-1--0-0-/6-5-3-0-------0-------|-0-0---|
. . . . . . . . .


*pause-bass for 4 bars*


Segue to Riff B-----|
|-------------------|
|-------------------|
|-------------------|
|-------------------|
|-7-8----7-8----3---|
|-5-6-xx-5-6-xx-1---|


Riff B 1-3-------|4.---|
|-----------------------------------------------------------------|-----|
|-----------------------------------------------------------------|-----|
|-----------------------------------------------------------------|-----|
|-----7---9-----9---10-----------------7---9-----9---10-----------|-----|
|-----5---7-----7---8----------7/8-----5---7-----7---8----------8-|-87-|
|-0-0---0---0-0---0----0-0-0-0-5/6-0-0---0---0-0---0----0-0-0-0-6-|-65-|
. . . . . . . . . . . . . . . . . . . .


Riff C 1.------------------------------|
|-----------------------------------------------------------------|
|-----------------------------------------------------------------|
|-----------------------------------------------------------------|
|-----------------------------------------------------------------|
|-----------------------------------------------------------------|
|-2-222-2-222-222-2-222-2-222-222-6-666-6-666-666-6-666-6-666-666-|
. ... . ... ... . ... . ... ... . ... . ... ... . ... . ... ...


2.----------------------------------|
|-----------------------------------|
|-----------------------------------|
|-----------------------------------|
|-----------------------------------|
|-----------------------------------|
|-7-777-7-777-777-7-777-7-777-7-7-7-|
. ... . ... ... . ... . ... . . .


Riff D 1.--------------|2.-------------------|
|-------------------------------------|---------------------|
|-------------------------------------|---------------------|
|-------------------------------------|---------------------|
|-------------------------------------|---------------------|
|-8 p 7 p 5----------------7-8~-0-0-0-|------8h10--8~-0-0-0-|
|-----------6~-5h6-8~-8/10------------|-8/10----------------|
. . . . . .


Riff D 3 Times
Riff B 1 Time
Riff C 1 Time
Riff D 4 Times


Riff E Play 4 Times
|------------------------------------------------------------------------------|
|------------------------------------------------------------------------------|
|------------4~a.h.---------------------------------4~a.h.---------------------|
|-------------------5p4------5--------7--------------------5p4------5--------3-|
|--------------------------5--------7-----------------------------5--------3---|
|-0---2-3-6--------------3------3/5------0---2-3-6--------------3------31-----|
. . . . . . . . . . . . . . . .


Solo Riff Play 4 Times
|---------------------------------------------------|
|---------------------------------------------------|
|---------------------------------------------------|
|---------------------------------------------------|
|----------------------5------------------------5---|
|-4-4444444444444444-4---4-0-0000000000000000-4---4-|
................ ................


Riff F
|--------------------------------|
|--------------------------------|
|--------------------------------|
|-7-9-7h9p75-7p54-5--42h4-2-0-|
|--------------------------------|
|--------------------------------|


Riff G (Clean-let ring)
|--------------------------------|
|--------------------------------|
|-----0-------0---------0------0-|
|---0-------0---------4------5---|
|-2-------3-------3h5------7-----|
|--------------------------------|


Riff F 1 Time
Riff G 1 Time
Riff F 1 Time
Riff G 1 Time
Riff F 1 Time
Riff G 6 Times
Riff B 4 Times
Riff C 1 Time
Riff D .5 Time

Check Out Death8699.com With More Transcriptions at:
http://www.death8699.co