Arch Enemy — Marching On A Dead End Road

Arch Ememy  Marching On A Dead End Road tabbed out by LLOYD MUNROE

My band whats to cover this song and i realised the tab for it wasnt on the net so i tabbed it out. Enjoy

:--------0--:---------0--:---------0-:
:----6------:-----6------:-----6-----:
:--7---7----:--7---------:--7--------:
:--0--------:--0----8----:--0----5---:
:-----------:------------:-----------:
:-----------:------------:-----------:
repeat this section listen to the song for the changes in time

:------------------------------------------
:-18-17-18---17-18-17---17-15h17p15--13-b14
:------------------------------------------
:------------------------------------------
:------------------------------------------
:------------------------------------------

:------------------------------------------
:------------------------------------------
:-------14-12----------12-10---------------
:-12-14---------12-14----------------------
:------------------------------------------
:------------------------------------------

:------------------------------------------
:-15--13-12-12---13--11-10-10---11--9-8-8--
:------------------------------------------
:------------------------------------------
:------------------------------------------
:------------------------------------------

:------------------------------------------
:-9--7-5-5---7--5-4-4---6--4-3-3-----------
:---------------------------------7--------
:------------------------------------------
:------------------------------------------
:------------------------------------------

The obove section is played higher the second time with two guitars

:--------------------------------------------
:-12--14-15--15-14-15--14--15-17--14-15-17-15
:--------------------------------------------
:--------------------------------------------
:--------------------------------------------
:--------------------------------------------

:------------------------------------------
:-17--17---18--18--------------------------
:------------------------------------------
:------------------------------------------
:------------------------------------------
:------------------------------------------


It then goes into another section which i aint worked out yet but
im sure one of the riffs goes summit like this:

:--------------------------------------------------------------:
:--------------------------------------------------------------:
:--------------------------------------------------------------:
:-17----15--14-15----10---12-----------------------------------:
:--------------------------------------------------------------:
:--------------------------------------------------------------:


Cheers for looking people
any corrections email me at tsb114@hotmail.com