Arch Enemy — We Will Rise

На этой странице Вы можете ознакомиться с 2 версиями подбора аккордов для гитары к песне "We Will Rise" группы (исполнителя) "Arch Enemy".

Arch Enemy - We Will Rise 
Tabbed by: Lindsi
Email: lindsi_98103@hotmail.com

Tuning: Down two whole steps

INTRO
Gtr 2 (lead)
e|---------------------------------------------------------------------------
B|---------------------------------------------------------------------------
G|--13--13--13--13--13--13--13--13--13--13--13--13--13--13--13--13-----------
D|--x----x---x---x---x---x---x---x---x---x---x---x---x---x---x---x-----------
A|--11--11--11--11--11--11--11--11--11--11--11--11--11--11--11--11-----------
E|---------------------------------------------------------------------------

e|---------------------------------------------------------------------------
B|---------------------------------------------------------------------------
G|--14--14--14--14--14--14--14--14----------12--12--12--12--12--12--12--12---
D|---x---x---x---x---x---x---x---x-----------x---x---x---x---x---x---x---x---
A|--12--12--12--12--12--12--12--12----------10--10--10--10--10--10--10--10---
E|---------------------------------------------------------------------------

e|---------------------------------------------------------------------------
B|---------------------------------------------------------------------------
G|--9--9--9--9--9--9--9--9--9--9--9--9--9--9--9--9--9--9--9--9--9--9--9------
D|--x--x--x--x--x--x--x--x--x--x--x--x--x--x--x--x--x--x--x--x--x--x--x------
A|--7--7--7--7--7--7--7--7--7--7--7--7--7--7--7--7--7--7--7--7--7--7--7------
E|---------------------------------------------------------------------------


e|---------------------------------------------------------------------------
B|---------------------------------------------------------------------------
G|--11--8--8--8--8--8--8--8--8-----Repeat 3 times----------------------------
D|---x--x--x--x--x--x--x--x--x-----------------------------------------------
A|---9--6--6--6--6--6--6--6--6-----------------------------------------------
E|---------------------------------------------------------------------------

Gtr 1 (rythem)
e|---------------------------------------------------------------------------
B|---------------------------------------------------------------------------
G|---------------------------------------------------5--5--5--5--5--5--5--5--
D|--2--2--2--2--2--2--2--2--2--2--2--2--2--2--2--2---x--x--x--x--x--x--x--x--
A|--x--x--x--x--x--x--x--x--x--x--x--x--x--x--x--x---3--3--3--3--3--3--3--3--
E|--0--0--0--0--0--0--0--0--0--0--0--0--0--0--0--0---------------------------

e|---------------------------------------------------------------------------
B|---------------------------------------------------------------------------
G|--5--5--5--5--5--5--5--5--2--2--2--2--2--2--2--2--2--2--2--2--2--2--2--2---
D|--x--x--x--x--x--x--x--x--x--x--x--x--x--x--x--x--x--x--x--x--x--x--x--x---
A|--3--3--3--3--3--3--3--3--0--0--0--0--0--0--0--0--0--0--0--0--0--0--0--0---
E|---------------------------------------------------------------------------

e|---------------------------------------------------------------------------
B|---------------------------------------------------------------------------
G|--4--4--4--4--4--4--4--4--4--4--4--4--4--4--4--4----Repete 3 Times---------
D|--x--x--x--x--x--x--x--x--x--x--x--x--x--x--x--x---------------------------
A|--2--2--2--2--2--2--2--2--2--2--2--2--2--2--2--2---------------------------
E|---------------------------------------------------------------------------

Verse: Gtrs 1 + 2
e|---------------------------------------------------------------------------
B|---------------------------------------------------------------------------
G|--9------Let Ring----------------------------------------------------------
D|--x------------------------------------------------------------------------
A|--7------------------------------------------------------------------------
E|---------------------------------------------------------------------------

e|---------------------------------------------------------------------------
B|---------------------------------------------------------------------------
G|---------------------------------------------------------------------------
D|---------------------------------------------------------------------------
A|--17-----------5h-7-------5---2------------3-------2-----0-------5h-7-----
E|--17------5h-7----------0---0---0---0---0--1----1--0--0-----5h-7----------
PM PM PM------- PM PM

e|---------------------------------------------------------------------------
B|---------------------------------------------------------------------------
G|---------------------------------------------------------------------------
D|---------------------------------------------------------------------------
A|----8----5-----------5-------3--------5h-7---------------------------------
E|-0----0-----0--0--0--3---0---1---5h-7--------------------------------------
PM PM PM------ PM
e|---------------------------------------------------------------------------
B|---------------------------------------------------------------------------
G|---------------------------------------------------------------------------
D|---------------------------------------------------------------------------
A|----5----2----------3------2-----0--------5h-7-----------------------------
E|-0----0----0--0--0--1---1--0--0------5h-7----------------------------------
PM PM PM----- PM PM
e|---------------------------------------------------------------------------
B|---------------------------------------------------------------------------
G|---------------------------------------------------------------------------
D|---------------------------------------------------------------------------
A|----8----5-----------5--3--------------------------------------------------
E|-0----0-----0--0--0--3--1--------------------------------------------------
PM PM PM------


e|---------------------------------------------------------------------------
B|---------------------------------------------------------------------------
G|---------------------------------------------------------------------------
D|---------------------------------------------------------------------------
A|---------------------5h-8--------------------------5h-7--------------------
E|-0----0----0----5h-7-----------0----0----0----5h-7-------------------------
~tremolo~ ~tremolo~
e|---------------------------------------------------------------------------
B|---------------------------------------------------------------------------
G|---------------------------------------------------------------------------
D|---------------------------------------------------------------------------
A|--------------------5h-8-------------------2-------------------------------
E|-0----0----0---5h-7---------0----0----0----0-------------------------------
~tremolo~ ~tremolo~


Repeat intro 2 times
Verse


Guiatr solo
e|---------------------------------------------------------------------------
B|-------------13--11~~~~---------10--8~~~~--------------11--10~~~~----------
G|---------------------------------------------------------------------------
D|-----12--13--------------8--10-----------------10--12----------------------
A|-10-------------------6---------------------8------------------------------
E|---------------------------------------------------------------------------
PM--------- PM------- PM--------

e|---------------------------------------------------------------------------
B|-11--10------11--10--(11)------------------13b(15)r(13)--11~~~~------------
G|---------12----------------------------------------------------------------
D|-----------------------------------12--13----------------------------------
A|-------------------------------10------------------------------------------
E|---------------------------------------------------------------------------
tr~~~~~ PM---------
e|---------------------------------------------------------------------------
B|-----------10b(11)r(10)--8~~~~-------------11--10~~~~----------------------
G|---------------------------------------------------------------------------
D|----8--10--------------------------10--12----------------------------------
A|-6------------------------------8------------------------------------------
E|---------------------------------------------------------------------------
PM------- PM--------
e|-18--15--17--18--17--15--18--15--17--18--17--15--19------------------------
B|-----------------------------------------------------12--15--15b(17)~~~~---
G|---------------------------------------------------------------------------
D|---------------------------------------------------------------------------
A|---------------------------------------------------------------------------
E|---------------------------------------------------------------------------

e|----------------------15--14-------------------12-----------12-------------
B|-12--15--15b(17)~~~~----------12--15--15b(17)------15b(17)-----------------
G|---------------------------------------------------------------------------
D|---------------------------------------------------------------------------
A|---------------------------------------------------------------------------
E|---------------------------------------------------------------------------

e|----------12-----------12-----------12-----------12-----------12-----------
B|-15b(17)------15b(17)------15b(17)------15b(17)------15b(17)---------------
G|---------------------------------------------------------------------------
D|---------------------------------------------------------------------------
A|---------------------------------------------------------------------------
E|---------------------------------------------------------------------------

e|----------12-----------12-----------12-----------12------12--17--12--------
B|-15b(17)------15b(17)------15b(17)------15b(17)------15--------------15----
G|---------------------------------------------------------------------------
D|---------------------------------------------------------------------------
A|---------------------------------------------------------------------------
E|---------------------------------------------------------------------------

e|-12--17--12------12--17--12------12--17--12------12--17--12------12--15----
B|-------------15--------------15--------------15--------------15------------
G|---------------------------------------------------------------------------
D|---------------------------------------------------------------------------
A|---------------------------------------------------------------------------
E|---------------------------------------------------------------------------

e|17--17b(19)r(17)-14--------------------------------------------------------
B|--------------------15--12---------------------10b(11)r(10)--8~~~~~~-------
G|----------------------------1211~~~~~~~~~~~~--11b(12)r(11)--9~~~~~~-------
D|---------------------------------------------------------------------------
A|---------------------------------------------------------------------------
E|---------------------------------------------------------------------------

PreChorse
e|---------------------------------------------------------------------------
B|---------------------------------------------------------------------------
G|---------------------------------------------------------------------------
D|---------------------------------------------------------------------------
A|----5-----2-----------3-----2-----0--------5h-7----------------------------
E|-0-----0-----0--0--0--1--1--0--0-----5h-7----------------------------------
PM PM PM----- PM PM
e|---------------------------------------------------------------------------
B|---------------------------------------------------------------------------
G|---------------------------------------------------------------------------
D|---------------------------------------------------------------------------
A|----8-----5-----------5-----3--------5h-7----------------------------------
E|-0-----0-----0--0--0--3--0--1--5h-7----------------------------------------

e|---------------------------------------------------------------------------
B|---------------------------------------------------------------------------
G|---------------------------------------------------------------------------
D|---------------------------------------------------------------------------
A|----5-----2-----------3-----2--0--------5h-7-------------------------------
E|-0-----0-----0--0--0--1--0--0-----5h-7-------------------------------------

e|---------------------------------------------------------------------------
B|---------------------------------------------------------------------------
G|---------------------------------------------------------------------------
D|---------------------------------------------------------------------------
A|----8-----5-----------5--3-------------------------------------------------
E|-0-----0-----0--0--0--3--1-------------------------------------------------
PM PM PM-----

Intro 2 times

Outro Guitar Solo
e|---------------------------------------------------------------------------
B|---------17----------17----------17----------17----------17----------------
G|-14--16------14--16------14--16------14--16------14--16------14--16--17----
D|---------------------------------------------------------------------------
A|---------------------------------------------------------------------------
E|---------------------------------------------------------------------------

e|---------------------------------------------------------------------------
B|20---------20----------20----------20----------20--------------22----------
G|---16--17------16--17------16--17------16--17------16--17--21------17--21--
D|---------------------------------------------------------------------------
A|---------------------------------------------------------------------------
E|---------------------------------------------------------------------------

e|---------------------------------------------------------------------------
B|22----------22----------22----------22--------------24----------24---------
G|---17--21------17--21------17--21------17--21--23------21--23------21--23--
D|---------------------------------------------------------------------------
A|---------------------------------------------------------------------------
E|---------------------------------------------------------------------------

e|------------------------------19---------17---------19~~~~~~~~-------------
B|-24--------24----------15/17------1715------1517-------------------------
G|----21--23------20--23-----------------------------------------------------
D|---------------------------------------------------------------------------
A|---------------------------------------------------------------------------
E|---------------------------------------------------------------------------
~tremolo~
e|--------22---------22---------22~~~~~~--22b(24)-----22-----17b(19)~~~~~~---
B|-1920------20/19------1920-----------------------------------------------
G|---------------------------------------------------------------------------
D|---------------------------------------------------------------------------
A|---------------------------------------------------------------------------
E|---------------------------------------------------------------------------

e|-17b(19)r(17)--15--17b(19)~~~~--15--17--15/14--15--14------17~~~~~~--------
B|-------------------------------------------------------15------------------
G|---------------------------------------------------------------------------
D|---------------------------------------------------------------------------
A|---------------------------------------------------------------------------
E|---------------------------------------------------------------------------

e|--------19---------17---------19~~~~~~---------15------15--14b(15)r(14)----
B|-1517------17/15------1517------------1012------12----------------------
G|---------------------------------------------------------------------------
D|---------------------------------------------------------------------------
A|---------------------------------------------------------------------------
E|---------------------------------------------------------------------------

e|-12----------------12------------------------------------------------------
B|-----15b(17)~~~~~------15--12----------------------------------------------
G|-------------------------------14~~~~~~~-----------------------------------
D|---------------------------------------------------------------------------
A|------------------------------------------------------14--15--17--14--15---
E|------------------------------------------14--15--17-----------------------

e|---------------------------------------------------------------------------
B|-----------------------------------------------------15--17--19--16--17----
G|-----------------------------14--16--17--14--16--17------------------------
D|-----14--16--17--14--16--17------------------------------------------------
A|-17------------------------------------------------------------------------
E|---------------------------------------------------------------------------

e|----15--17--19--------------15--17--19------------17--19--20--22b(24)~~~---
B|-19-------------16--17--19-------------17--19--20--------------------------
G|---------------------------------------------------------------------------
D|---------------------------------------------------------------------------
A|---------------------------------------------------------------------------
E|---------------------------------------------------------------------------

e|-22b(24)r(22)--19----------------------------------------------------------
B|---------------------------------------------------------------------------
G|-----------------------------Fade Out--------------------------------------
D|---------------------------------------------------------------------------
A|---------------------------------------------------------------------------
E|---------------------------------------------------------------------------


You're gunna have to figure out the order yourself cuz i'm too lazy.
It's a fun song to play so have fun. ENJOI!!! Any corrections e mail
me with proof.

| PM Palm Mute
| tr~ Trill
| / slide up
| slide down
| h hammer-on
| p pull-off
| ~ vibrato
| + harmonic
| x Mute note
=============================================================================
Arch Enemy
We Will Rise
MTV2's Headbanger's Ball CD Compilation
Tuning: CGCFAD
Tabbed by: Robert Walden
Palm mute=*

Intro/CHorus-Guitar 1
-------------------------------------------------------
-------------------------------------------------------
-11-11-11-11-11-11-12-12-12-12-12-12-10-10-10-10-10-10-
--x--x--x--x--x--x--x--x--x--x--x--x--x--x--x--x--x--x-
--9--9--9--9--9--9-10-10-10-10-10-10--8--8--8--8--8--8-
-------------------------------------------------------

Guitar one cont..
------------------------------------
------------------------------------
-7-7-7-7-7-7-7-7-7-7-7-7-6-6-6-6-6-6
-x-x-x-x-x-x-x-x-x-x-x-x-x-x-x-x-x-x
-5-5-5-5-5-5-5-5-5-5-5-5-4-4-4-4-4-4
------------------------------------

Intro/Chorus-Guitar 2
----------------------------
----------------------------
----------------------------
----------------------------
-000000-888888-555555-777777
-000000-888888-555555-777777

Verse
------------------------------
----------15-18-17-15-20-18-16
-7----------------------------
-x----------------------------
-5----------------------------
------------------------------

Prechorus A
-----------------------------------------------------
-----------------------------------------------------
-----------------------------------------------------
-----------------------------------------------------
----------5---3---------3-3h5-----6---3---3-1---3-3h6
-15/--0-0---0---0-5-3-1-------0-0---0---0-3-1-0------
* * * * * * * * * * * * * *

Prechorus B-tremolo pick 0's
------------------------------------------------
------------------------------------------------
------------------------------------------------
------------------------------------------------
-----------------3---3h6-----------------3---3h5
-000000000000000---0-----000000000000000---0----

Bridge
--------------------------------------------------------------
--------------------------------------------------------------
----------15-13----------12-10----------13-12-13-12-10-13-12^-
-------13-------------11-------------13-----------------------
-13-15----------11-13----------13-15--------------------------
--------------------------------------------------------------
* * * * * * * * *

Rep. 4X-(13-12-10)
----------------------------------------------------------------
----------------------------------------------------------------
----------15^15-13----------12^12-10----------13-12-13-12-10-14^
-------13----------------11----------------13-------------------
-13-15-------------11-13-------------13-15----------------------
----------------------------------------------------------------
* * * * * * * * *

Solo
-------------------------13-12---------------------------------------
-11-13-13h15-11-13-13h15-------11-13-13h15-13h15-15-13h15-15-13h15-15
---------------------------------------------------------------------
---------------------------------------------------------------------
---------------------------------------------------------------------
---------------------------------------------------------------------

-------------------------------17^---------------
-13h15p13h15p13h15p13h15-15h17----18-17-15----15^
-------------------------------------------17----
-------------------------------------------------
-------------------------------------------------
-------------------------------------------------

Ending Solo-guitar 3-repeated until song is ended
-------------------------------------------------------------------------
-------15-------15-------15-------15-------18-------18-------18-------18-
-14-17----14-17----14-17----14-17----15-17----15-17----15-17----15-17----
-------------------------------------------------------------------------
-------------------------------------------------------------------------
-------------------------------------------------------------------------

-------------------------------------------------------------------------
-------20-------20-------20-------20-------22-------22-------22-------22-
-17-19----17-19----17-19----17-19----19-21----19-21----19-21----19-21----
-------------------------------------------------------------------------
-------------------------------------------------------------------------
-------------------------------------------------------------------------

Guitar 4
---------------------------------------------22^-22-22-22-22-22-22-21^-
-----------------------15h18-18-15h18-18-18^---------------------------
-17h19-19-17h19-19-19^-------------------------------------------------
-----------------------------------------------------------------------
-----------------------------------------------------------------------
-----------------------------------------------------------------------

-17^-17-------17^---------------------
--------18-17----18-17-17-18-17----15^
--------------------------------17----
--------------------------------------
--------------------------------------
--------------------------------------

Man, that took SOO much time, and this solo was so tedious to type on here lol,
well ya it took me a while so rate it please. ARCH ENEMY!! IM me at kornfellow91
for comments or leave one in correction box above, enjoy