Area 51 — Momentum

This is the euro-punk song Momentum by the tree hugging AREA 51 band! 
Again, I am a roadie for them and I am certain of the accuracy of this
bassline.
Submitted by: Pepper5414@aol.com


INTRO: no effects
G-----------------------------------------------------------------------
D-6--7--7--7--7--7--6--7--7--7-----------------------------------
A-------------------------------0---------------------------------------
E------------------------------------------------------------------------

VERSE: no effects
G-------------------------------------------------------------------------
D----------------------------------6--7--7--7--7--7--9--7--7--7---
A-6--7--7--7--7--7--6--7--7--7-------------------------------------
E-------------------------------0----------------------------------------

CHORUS: uses a phaser
G-------------------------------7--0--0--0--12-------------------
D-------------------7--0--0--0-------------------------------------
A-------7--0--0--0-------------------------------------------------
E-0--0--------------------------------------------------------------

The band speeds up the intro for the ending into a chaotic mess!!!
Now remember, Michael (the bassist) despises picks except for in
Momentum.
Momentum by AREA 51 tabbed by Pepper5414@aol.com