Area 7 — Boys Dont Cry

На этой странице Вы можете ознакомиться с 3 версиями подбора аккордов для гитары к песне "Boys Dont Cry" группы (исполнителя) "Area 7".

Area 7, Boys Don't Cry.
Tabbed by Brett Massingham, kornfreak_40@hotmail.com.

Artist: Area 7
Title: Boys Don't Cry
Album: Bitter & Twisted

I made a mistake in some parts of this song.
This is the correct version.

Standard Tuning

Intro

E|---------------------------------|
B|---------------------------------|
G|---------------------------------|
D|---------------------------------| x 3
A|---7-9---7-11---7-9---7-11-9-7---|
E|---------------------------------|

Chorus

E|-------------|
B|---3-5-7-9---|
G|-------------|
D|-------------| x 2
A|-------------|
E|-------------|

Verse

E|-----------------------------------------------|
B|-----------------------------------------------|
G|-----------------------------------------------|
D|-----------------------------------------------| x 7
A|---7-7-7-7---9-9-9-9---7-7-7-7---11-11-11-11---|
E|-----------------------------------------------|

Chorus

Verse

Chorus

Verse

Chorus

Outro

E|-----------------------------|
B|---3---5---7---9---9-7-5-3---|
G|-----------------------------|
D|-----------------------------|
A|-----------------------------|
E|-----------------------------|

E|-------------------------------|
B|-------------------------------|
G|-------------------------------|
D|-------------------------------| Repeat to End
A|---5-5---7-7-7---9-9---11-11---|
E|-------------------------------|

See ya!
:: Ultimate Guitar Archive ::
http://www.ultimate-guitar.com
Area 7, Boys Don't Cry.
Tabbed by Brett Massingham, kornfreak_40@hotmail.com.

Artist: Area 7
Title: Boys Don't Cry
Album: Bitter and Twisted

Standard Tuning

Intro:

E|---------------------------------|
B|---------------------------------|
G|---------------------------------|
D|---------------------------------| x 3
A|---7-9---7-10---7-9---7-10-9-7---|
E|---------------------------------|

E|-----------------------|
B|---3-5-7-9---3-5-7-9---|
G|-----------------------|
D|-----------------------|
A|-----------------------|
E|-----------------------|

Verse

E|---------------------------------------|
B|---------------------------------------|
G|---------------------------------------|
D|---------------------------------------| x 7
A|---5-5-5-5-7-7-7-7---5-5-5-5-8-8-8-8---|
E|---------------------------------------|

Chorus

E|-----------------------|
B|---3-5-7-9---3-5-7-9---|
G|-----------------------|
D|-----------------------|
A|-----------------------|
E|-----------------------|

Verse

Chorus

Verse

Chorus


E|-----------------------|
B|---3-5-7-9---9-7-5-3---|
G|-----------------------|
D|-----------------------|
A|-----------------------|
E|-----------------------|

E|-----------------------|
B|-----------------------|
G|-----------------------|
D|-----------------------| Play to end
A|---5-5-6-6-6-7-7-8-8---|
E|-----------------------|

If there's something wrong with this, e-mail me
Play along and see what you think
See ya!
: Ultimate Guitar Archive ::
ttp://www.ultimate-guitar.com
To: submit@ultimate-guitar.com
ubject: New Tabs
-From: sergeev@ttg-russia.ru
Area 7, Boys Don't Cry.
Tabbed by Brett Massingham, kornfreak_40@hotmail.com.

rtist: Area 7
Title: Boys Don't Cry
Album: Bitter and Twisted

Standard Tuning

Intro:

E|---------------------------------|
B|---------------------------------|
G|---------------------------------|
D|---------------------------------| x 3
A|---7-9---7-10---7-9---7-10-9-7---|
E|---------------------------------|

E|-----------------------|
B|---3-5-7-9---3-5-7-9---|
G|-----------------------|
D|-----------------------|
A|-----------------------|
E|-----------------------|

Verse

E|---------------------------------------|
B|---------------------------------------|
G|---------------------------------------|
D|---------------------------------------| x 7
A|---5-5-5-5-7-7-7-7---5-5-5-5-8-8-8-8---|
E|---------------------------------------|

Chorus

E|-----------------------|
B|---3-5-7-9---3-5-7-9---|
G|-----------------------|
D|-----------------------|
A|-----------------------|
E|-----------------------|

Verse

Chorus

Verse

Chorus


E|-----------------------|
B|---3-5-7-9---9-7-5-3---|
G|-----------------------|
D|-----------------------|
A|-----------------------|
E|-----------------------|

E|-----------------------|
B|-----------------------|
G|-----------------------|
D|-----------------------| Play to end
A|---5-5-6-6-6-7-7-8-8---|
E|-----------------------|

If there's something wrong with this, e-mail me
Play along and see what you think
See ya!
:: Ultimate Guitar Archive ::
http://www.ultimate-guitar.com
Standard Tuning


Intro
E|---------------------------------|
B|---------------------------------|
G|---------------------------------|
D|---------------------------------| x 3
A|---7-9---7-11---7-9---7-11-9-7---|
E|---------------------------------|


Chorus
E|-------------|
B|---3-5-7-9---|
G|-------------|
D|-------------| x 2
A|-------------|
E|-------------|


Verse
E|-----------------------------------------------|
B|-----------------------------------------------|
G|-----------------------------------------------|
D|-----------------------------------------------| x 7
A|---7-7-7-7---9-9-9-9---7-7-7-7---11-11-11-11---|
E|-----------------------------------------------|


Chorus
Verse
Chorus
Verse
Chorus


Outro
E|-----------------------------|
B|---3---5---7---9---9-7-5-3---|
G|-----------------------------|
D|-----------------------------|
A|-----------------------------|
E|-----------------------------|


E|-------------------------------|
B|-------------------------------|
G|-------------------------------|
D|-------------------------------| Repeat to End
A|---5-5---7-7-7---9-9---11-11---|
E|-------------------------------|