Area 7 — Let Me Down

На этой странице Вы можете ознакомиться с 3 версиями подбора аккордов для гитары к песне "Let Me Down" группы (исполнителя) "Area 7".

Area 7, Let Me Down.
Tabbed by Brett Massingham, kornfreak_40@hotmail.com.

Artist: Area 7
Title: Let Me Down
Album: Bitter and Twisted

Standard Tuning

Verse and Chorus

E|---------------------|
B|---------------------|
G|---------------------|
D|---------------------| x ?
A|---8-8-6-6-9-9-8-8---|
E|---------------------|

End of Chorus

E|-----------------------------------------------|
B|---2-2-2-5-2---2-2-5-2---3-3-3-6-3---3-3-6-3---|
G|-----------------------------------------------|
D|-----------------------------------------------| x 5
A|-----------------------------------------------|
E|-----------------------------------------------|

E|---------------|
B|---------------|
G|---------------|
D|---------------| x 3 or 4
A|---5-5-5-5-5---|
E|---------------|

xxx (Guitar plays verse on Saxophone solo)

Chorus

End of Chorus

Verse

Chorus

End of Chorus

Play along and see what you think
See ya!

xxx = Trumpet and Saxophone solo
:: Ultimate Guitar Archive ::
http://www.ultimate-guitar.com
Artist: Area 7
Title: Let Me Down
Album: Bitter and Twisted

Standard Tuning

Verse and Chorus

E|---------------------------|
B|---------------------------|
G|---------------------------|
D|---------------------------| x ?
A|---8-8---6-6---9-9---8-8---|
E|---------------------------|

End of Chorus

E|-----------------------------------------------|
B|---3-3-3-6-3---3-3-6-3---6-6-6-9-6---6-6-9-6---|
G|-----------------------------------------------|
D|-----------------------------------------------| x 4
A|-----------------------------------------------|
E|-----------------------------------------------|

E|---------|
B|---------|
G|---------|
D|---------| x 8 or 9
A|---7-5---|
E|---------|

xxx (Guitar plays Verse during Saxophone solo)

Chorus

End of Chorus

Verse

Chorus

End of Chorus


That's all of it.
Just remember that:-
xxx = Trumpet and Saxophone solos
See ya!
XXX = Trumpet and Saxophone solos
Standard Tuning
Verse and Chorus
E|---------------------------|
B|---------------------------|
G|---------------------------|
D|---------------------------| x ???
A|---8-8---6-6---9-9---8-8---|
E|---------------------------|


End of Chorus
E|-----------------------------------------------|
B|---2-2-2-5-2---2-2-5-2---3-3-3-6-3---3-3-6-3---|
G|-----------------------------------------------|
D|-----------------------------------------------| x 5
A|-----------------------------------------------|
E|-----------------------------------------------|


E|---------------|
B|---------------|
G|---------------|
D|---------------| x 3 or 4
A|---5-5-5-5-5---|
E|---------------|


XXX (Guitar plays Verse during Saxophone solo)
Chorus
End of Chorus
Verse
Chorus
End of Chorus