Area 7 — Walk Away

Area 7, Walk Away.
Tabbed by Brett Massingham, kornfreak_40@hotmail.com.

Artist: Area 7
Title: Walk Away
Album: Bitter and Twisted

Standard Tuning

Pre-Chorus

E|-------------------|
B|-------4-------2---|
G|---2-------4-------|
D|-------------------| x 2
A|-------------------|
E|-------------------|

Verse

E|-----------------------|
B|-----------------------|
G|-----------------------|
D|-----------------------| x 4
A|---6-6-6-6---8-8-8-8---|
E|-----------------------|

Pre-Chorus

Verse

Chorus (Same as Pre-Chorus)

Pre-Chorus

Verse

Chorus

Saxophone Solo (Guitar plays Pre-Chorus)

After Solo

E|-----------------------------------|
B|-----------------------------------|
G|-----------------------------------|
D|-----------------------------------|
A|---6-6---6-6---6-6-6-6---8-8-8-8---|
E|-----------------------------------|

Pre-Chorus

Verse

Chorus


That's all of it.
See ya!
:: Ultimate Guitar Archive ::
http://www.ultimate-guitar.com