Armor For Sleep — Being Your Walls

-------------------------------------------------------------------------------
Being Your Walls - Armor For Sleep
-------------------------------------------------------------------------------
Tabbed by:eric pihl
Email:

Tuning:drop d
Rhythm:
after the intro 2 times
e|---------------------------------------------------------------------------|
B|---------------------------------------------------------------------------|
G|------------------------------------------4-6666-6-4-----------------------|
D|6-6666-6-6666-6-6666-6-6666-2-2222-2-2222----------------------------------|
A|6-6666-6-6666-6-6666-6-6666-2-2222-2-2222-2-4444-4-2-----------------------|
E|6-6666-6-6666-6-6666-6-6666-2-2222-2-2222----------------------------------|
during the chorus the rhythm does nothing
prechorus 2 times
e|---------------------------------------------------------------------------|
B|---------------------------------------------------------------------------|
G|------------------------------------------4-6666-6-4-----------------------|
D|6-6666-6-6666-6-6666-6-6666-2-2222-2-2222----------------------------------|
A|6-6666-6-6666-6-6666-6-6666-2-2222-2-2222-2-4444-4-2-----------------------|
E|6-6666-6-6666-6-6666-6-6666-2-2222-2-2222----------------------------------|
verse 2 times
e|---------------------------------------------------------------------------|
B|---------------------------------------------------------------------------|
G|----------------------------6-6666-6-6666----------------------------------|
D|2-2222-2-2222-6-6666-6-6666-4-4444-4-4444-2222-2222------------------------|
A|2-2222-2-2222-6-6666-6-6666-4-4444-4-4444-2222-2222------------------------|
E|2-2222-2-2222-6-6666-6-6666-4-4444-4-4444-2222-2222------------------------|
after verse
e|---------------------------------------------------------------------------|
B|---------------------------------------------------------------------------|
G|------------------------------------------4-6666-6-4-----------------------|
D|6-6666-6-6666-6-6666-6-6666-2-2222-2-2222----------------------------------|
A|6-6666-6-6666-6-6666-6-6666-2-2222-2-2222-2-4444-4-2-----------------------|
E|6-6666-6-6666-6-6666-6-6666-2-2222-2-2222----------------------------------|
during the chorus the rhythm does nothing again
prechorus 1 time
e|---------------------------------------------------------------------------|
B|---------------------------------------------------------------------------|
G|------------------------------------------4-6666-6-4-----------------------|
D|6-6666-6-6666-6-6666-6-6666-2-2222-2-2222----------------------------------|
A|6-6666-6-6666-6-6666-6-6666-2-2222-2-2222-2-4444-4-2-----------------------|
E|6-6666-6-6666-6-6666-6-6666-2-2222-2-2222----------------------------------|
verse 4 times
e|---------------------------------------------------------------------------|
B|---------------------------------------------------------------------------|
G|----------------------------6-6666-6-6666----------------------------------|
D|2-2222-2-2222-6-6666-6-6666-4-4444-4-4444-2222-2222------------------------|
A|2-2222-2-2222-6-6666-6-6666-4-4444-4-4444-2222-2222------------------------|
E|2-2222-2-2222-6-6666-6-6666-4-4444-4-4444-2222-2222------------------------|
bridge as many times it is in the song i forgot
e|---------------------------------------------------------------------------|
B|---------------------------------------------------------------------------|
G|---------------------------------------------------------------------------|
D|6666-6666-6666-6666-2222-2222-2222-2222------------------------------------|
A|6666-6666-6666-6666-2222-2222-2222-2222------------------------------------|
E|6666-6666-6666-6666-2222-2222-2222-2222------------------------------------|
then the verse again 4 times


| / slide up
| slide down
| h hammer-on
| p pull-off
| ~ vibrato
| + harmonic
| x Mute note
===============================================================================