Ash — Burn Baby Burn

На этой странице Вы можете ознакомиться с 6 версиями подбора аккордов для гитары к песне "Burn Baby Burn" группы (исполнителя) "Ash".

ASH - Burn Baby Burn

tabbed by John Deeney
If you have any corrections/comments/spare Ash tickets in London :) then mail me at steve.peebles@cwcom.net

INTRO (and over verse)
Chords B E C#m F#

E 11--11--11--11--11--11--11--11-12-|
B --12--12--12--12--12--12--12------|

E 11--11--11--11--11--11--11-11-12-11-|
B --12--12--12--12--12--12------------|

VERSE
B E C#m F#
You're all I have in this teenage twilight
B E C#m F#
Your golden hair and pale blue eyes
B E C#m F#
But through all the days and the sleepless nights
Em F#
We have never been satisfied

B E C#m F#
Turn golden like the leaves
B E C#m F#
Yeah we are spirallin' on the breeze
B E C#m F#
Almost to the point of no return
Em
Everything will burn baby burn

CHORUS
F#m B
Look into my twilit eyes
E A
See a sign you wouldn't recognize
F#m B
Glad you can't be untied
E A
Oh this is so suicide
F#m B
Feelings that I can't disguise
E A
And never will be reconciled
F#m B Am
Oh and something inside has died

VERSE
Walk right through in a daze
Unresponsive eyes in a distant gaze
Like all the good times have gone away
And the memory leaves a bitter taste

Turn golden like the leaves
Yeah we are spirallin' on the breeze
Destructive love is all we had
Destructive love is all I am

CHORUS (as before)

SOLO

E ----------------------------|
B 17--16--11--12--7---9-5-7---| x3

then E --------14/(16)-16-16-16--|
B 17--16--------------------|

BRIDGE
E F#
Vicious bitter words
E F#
Becoming more and more cruel
E F#
But you always take them back
C#m
And let me hate the world

VERSE
Turn golden like the leaves
Yeah we are spirallin' on the breeze
Almost to the point of no return
Everything will burn baby burn

CHORUS
Look into my twilit eyes
See a sign you wouldn't recognize
Glad you can't be untied
Oh this is so suicide

Feelings that I can't disguise
We're living in a compromise
Oh and something inside has died

big finish on Am
After listening to the song for a while and watching the music video,
i'm pretty sure this is rite... sides, didnt see any other bass tabs for this
song so i decided to make one :).

After the guitar intro, the bass comes in playing this... (Part 1)
G|--------------------------------------------------------
D|-------------------------------------------------------- x14
A|-2-2-2---------4-4-4------------------------------------
E|-------0-0-0-0-------2-2-2-2----------------------------

After that, bass plays... (Part 2)
G|--------------------------------------------------------
D|-------------------------------------------------------- x2
A|---------44444444--------22222222-----------------------
E|-22222222--------00000000-------------------------------

The bass comes in after a very short break, and plays something twice, but
rather than tab incorrectly i'll let you experiment for yourself, sorry!
After all that he plays...
Pt.1 x10
Pt.2 x2
The part i can't tab...
During the guitar solo, play pt.1 x4

Afterwards, bass part is...
G|--------------------------------------------------------------
D|--------------------------------------------------------------
A|------------------------------------------------------44444444
E|-00000000-22222222-00000000-22222222-00000000-22222222--------

Pt.1 x4
Pt.2 x1

Outro
G|--------------------------------------------------------------
D|--------------------------------------------------------------
A|2-2-2-2-2-2-2-2-----------------------------------------------
E|-0-0-0-0-0-0-0-0----------------------------------------------

End on A|----2----

Tabbed By Benjamin K
any correction or comments are welcome, e-mail me: nunchux49@hotmail.com
Ash, Burn baby burn.
Tabbed by Jehan Sauvage, googootabber@caramail.com.


#----------------------------------PLEASE NOTE---------------------------------#
#This file is the author's own work and represents their interpretation of the #
#song. You may only use this file for private study, scholarship, or research. #
#------------------------------------------------------------------------------##
#

artist : Ash
song : Burn baby burn
album : Free all angels

tabbed by Jehan Sauvage , send corrections to googootabber@caramail.com

note : nothing's special with this tab... There are two guitars.

/ : slide
b : bend
r : release bend
h : hammer
p : pull-off

chords :
B5(x244xx)
E5(022xxx)
C#5(x466xx)
F#5(244xxx)
e5(x799xx)

INTRO :
guitar1 plays riff 1 four times
riff1 :
e/-11----11----11----11----11----11----11----11-12
b/----12----12----12----12----12----12----12--------
g/------------------------------------------------------------
d/------------------------------------------------------------
a/------------------------------------------------------------
E/------------------------------------------------------------
bass enters the third time.

PRE-VERSE 1 :
guitar1 plays riff1x4
guitar2 plays B5-E5-C#5-F#5 x4

VERSE 1 : (both guitars)
B5-E5-C#5-F#5 x3 (palm mute) then E5
B5-E5-C#5-F#5 x3 (without muting) then E5

CHORUS 1 : (both guitars)
F#5-B5-E5-C#5 x4 then F#5-B5-E5
There's a little break at the third time.

PRE-VERSE 2 :
guitar1 plays riff1x2
guitar2 plays B5-E5-C#5-F#5 x2

VERSE 2 :
guitar1 plays riff2x6
guitar2 plays same as verse 1
riff2 :
e/------------------------------------------------------------------------
b/-4----4----------------------------------------------------------------
g/----4----6/4/3-------------------------------------------------------
d/------------------------------------------------------------------------
a/------------------------------------------------------------------------
E/------------------------------------------------------------------------

CHORUS 2 : (both guitars)
same as chorus 1

BRIDGE first part :
guitar1 plays riff3x1
guitar2 plays B5-E5-C#5-F#5 x4 (palm mute)
riff3 :
e/-12-11------------- e/-12-11-11/16-16b
b/-------11-12------- x3 then b/----------------
g/-------------11-9-- g/----------------

BRIDGE second part :
guitar1 plays riff4x2
guitar2 plays E5-F#5 x3 (palm mute) then C#5
riff4 :
e/-12-11---------------
b/-------11-12---------
g/-------------11-11p9-
play slowly

VERSE 3 : (both guitars)
B5-E5-C#5-F#5 x3 then E5

CHORUS 3 : (both guitars)
same as other choruses

OUTRO :
guitar1 plays riff5x1
guitar2 plays E5
riff5:
e/-----------------------------------------------
b/-----------------------------------------------
g/--------------5-7-9-11-12-14-16-17-17-
d/-0-2-4-5-7----------------------------------
a/-----------------------------------------------
E/-----------------------------------------------
play each note several times

end on a e5.

NB : Sorry for the bad english 'cause I'm french...








:: Ultimate Guitar Archive ::
http://www.ultimate-guitar.com
Ash, Burn baby burn.
Tabbed by Jehan Sauvage, googootabber@caramail.com.

I'm sorry but i made a mistake in my tab :

1) the notes for the chorus are F#5,B5,E5 AND A5
2) the little at the very end of the song is

e
b
g
d----------4-5-7-9-11-12-14-16-17
a0-2-3-5-7---------------------------------------------
e

It would be nice if you correct .
Bye!
:: Ultimate Guitar Archive ::
http://www.ultimate-guitar.com
Artist: Ash
Track: Burn Baby Burn
Album: Free all angels
Tabbed by Mark Brown
INTRO:

Guitar1:
--11----11----11----11----11----11----11----11h12--
-----12----12----12----12----12----12----12--------
---------------------------------------------------
---------------------------------------------------
---------------------------------------------------
---------------------------------------------------

--11----11----11----11----11----11----11--11h12--11-
-----12----12----12----12----12----12---------------
----------------------------------------------------repeat
----------------------------------------------------
----------------------------------------------------
----------------------------------------------------

Guitar2: starts later
B5 E5 C#5 F#5
-----------------
-----------------
--4-------6------repeat
--4---2---6---4--
--2---2---4---4--
------0-------2--


VERSE1:

B5 E5 C#5 F#5 E5 F#5
------------------------------------
------------------------------------
--4-------6------repeat+PM--9---11--
--4---2---6---4-------------9---11--
--2---2---4---4-------------7---9---
------0-------2---------------------

B5 E5 C#5 F#5 E5
------------------------------
------------------------------
------9--------11--repeat--9--
--9---9---11---11----------9--
--9---7---11---9-----------7--
--7-------9-------------------


CHORUS:

F#5 B5 E5 A5 F#5 B5
--------------------------------
--------------------------------
------4-------2--------------4--
--4---4---2---2--repeat--4---4--
--4---2---2---0----------4---2--
--2-------0--------------2------

------------------
------------------
--5---7---9---11--
--x---x---x---x---
--3---5---7---9---
------------------
there are different effects in the same time


VERSE2:

Guitar1:
--11----11----11----11----11----11----11----11h12--
-----12----12----12----12----12----12----12--------
---------------------------------------------------
---------------------------------------------------
---------------------------------------------------
---------------------------------------------------

--11----11----11----11----11----11----11--11h12--11-
-----12----12----12----12----12----12---------------
----------------------------------------------------
----------------------------------------------------
----------------------------------------------------
----------------------------------------------------

Guitar2:
B5 E5 C#5 F#5
-----------------
-----------------
--4-------6------repeat
--4---2---6---4--
--2---2---4---4--
------0-------2--

Guitar1: let ring
-------------------------
-------------------------
--8------8---------------repeat
----9--9---11--9--11--9--
-------------------------
-------------------------

Guitar2:
B5 E5 C#5 F#5 E5 F#5
------------------------------------
------------------------------------
--4-------6------repeat+PM--9---11--
--4---2---6---4-------------9---11--
--2---2---4---4-------------7---9---
------0-------2---------------------

B5 E5 C#5 F#5 E5
------------------------------
------------------------------
------9--------11--repeat--9--
--9---9---11---11----------9--
--9---7---11---9-----------7--
--7-------9-------------------


CHORUS:

F#5 B5 E5 A5 F#5 B5
--------------------------------
--------------------------------
------4-------2--------------4--
--4---4---2---2--repeat--4---4--
--4---2---2---0----------4---2--
--2-------0--------------2------

---------
---------
--5---7--
--x---x--
--3---5--
---------
there are different effects in the same time


SOLO:

Guitar1: effects
--12--11---------------------------12--11--11s18s--
---------11--12------------------------------------
----------------11--13--9--11--x3------------------
---------------------------------------------------
---------------------------------------------------
---------------------------------------------------

Guitar2:
B5 E5 C#5 F#5
-----------------
-----------------
--4-------6------repeat
--4---2---6---4--
--2---2---4---4--
------0-------2--


BRIDGE:

Guitar1: effects
--12--11-------------------12--11---------
---------11--12-------------------11--12--
----------------11--13--9-----------------
------------------------------------------
------------------------------------------
------------------------------------------

Guitar2:
E5 F#5 C#5
-----------------------
-----------------------
--------------------6--
--2---4--repeat+PM--6--
--2---4-------------4--
--0---2----------------


VERSE3:

Guitar1:
-------------
--11h12s14s--
-------------
-------------
-------------
-------------

Guitar2:
B5 E5 C#5 F#5 E5
------------------------------
------------------------------
------9--------11--repeat--9--
--9---9---11---11----------9--
--9---7---11---9-----------7--
--7-------9-------------------


CHORUS:

F#5 B5 E5 A5 F#5 B5
--------------------------------
--------------------------------
------4-------2--------------4--
--4---4---2---2--repeat--4---4--
--4---2---2---0----------4---2--
--2-------0--------------2------

----------------------------------------------------------
----------------------------------------------------------
--5--7--9--11--12--14--16--17------------------14--16--17-
--x--x--x--x---x---x---x---x---12--14--16--17--x---x---x--
--3--5--7--9---10--12--14--15--x---x---x---x---12--14--15-
-------------------------------10--12--14--15-------------
there are different effects in the same time

E5
-----
-----
--9--
--9--
--7--
-----
Ash - Burn Baby Burn Intro

Tabbed by - Tom Hand (tozhan_2@hotmail.com)


e|-11----11----11----11-12-
B|----12----12----12-------
G|-------------------------
D|-------------------------
A|-------------------------
E|-------------------------


e|-11----11----11-11-12-11-
B|----12----12-------------
G|-------------------------
D|-------------------------
A|-------------------------
E|-------------------------

Sounds like its right...

Email me if ya can improve