Ash — Girl From Mars

На этой странице Вы можете ознакомиться с 4 версиями подбора аккордов для гитары к песне "Girl From Mars" группы (исполнителя) "Ash".

song: girl from mars

artist: ash

tabbed by: sharzdz (matt)

tuning: std

chorus 1

A E Dmaj7
do you remember the time when you were the girl from mars
Bm
I don't know if you knew that
A E Dmaj7
Oh we'd stay up late playing cards, Henri Winterman cigars
Bm D
But she never told me her name
E A
I still love you, the girl from mars

verse1

D Bm
Sitting in a dreamy daze by the water's edge
D E A
On a cool summer night
D Bm
Fireflies and the stars in the sky gentle glowing light
D E A
from your cigarette
E D Bm
The breeze blowing softly on my face
D E A
Reminds me of something else
E B Bm
Something that in my memory has been misplaced
D E Bm
suddenly all comes back
D Bm A
And as I look to the stars

chorus 2

A E D
do you remember the time when you were the girl from mars
Bm
I don't know if you knew that
A E D
Oh we'd stay up late playing cards, Henri Winterman cigars
Bm D
But she never told me her name
E A
I still love you, the girl from mars

verse 2
D Bm
surging throu the darkness over the moon-lit strand
D E A
electricity in the air
D Bm
twisting all___ throu the night on the terrace
D E A
now that summer is here
D Bm
i know that you are almost in love with me
D E A
i can see it in your eyes
E D Bm
strange lights shimmer under the sea tonite
D E Bm
and it almost blows my mind
D E A
and as i look to the stars

chorus 2

A E D
do you remember the time when you were the girl from mars
Bm
I don't know if you knew that
A E D
Oh we'd stay up late playing cards, Henri Winterman cigars
Bm D
But she never told me her name
E A
I still love you, the girl from mars

verse 3

A E Dmaj7 Bm
Today I sleep in the chair by the window
D E A
It felt as if you'd returned
E Dmaj7 Bm
I thought that you were standing over me
D E Bm
When I woke there was no-one there......(PAUSE)
D E
I still love you, the girl_____ from Mars

chorus 4

A E D
do you remember the time when you were the girl from mars
Bm
I don't know if you knew that
A E D
Oh we'd stay up late playing cards, Henri Winterman cigars
Bm D
But she never told me her name
E A
I still love you, the girl from mars

chorus 5

A E D
do you remember the time when you were the girl from mars
Bm
I don't know if you knew that
A E D
Oh we'd stay up late playing cards, Henri Winterman cigars
Bm D
But she never told me her name
E A
I still love you, the girl from mars
ASH – GIRL FROM MARS

capo 2nd fret

CHORDS
G 320022
D 000232
Cmaj7 032000
Am7 002010
C 032010

[G] do you remember the [D] time i knew a girl from [Cmaj7] mars
i don't [Am7] know if you knew that
oh [G] we'd stay up late playing [D] cards henri winterman [Cmaj7] cigars
though she [Am7] never told me her [C] name
i still [D] love you the girl from [G] mars

[G] sitting in our [D] dreamy [C] days by the [Am7] water's edge
[C] on a cool [D] summer [G] night
[G] fireflies and the [D] stars in the [C] sky gently [Am7] glowing light
[C] from your [D] ciga [G] rette
[G] the breeze [D] blowing [C] softly [Am7] on my face
re [C] minds me of [D] something [G] else
[G] something that [D] in my [C] memory has [Am7] been misplaced
[C] suddenly [D] all comes [Am7] back
[C] and as i [D] look to the [G] stars

[G] i remember the [D] time i knew a girl from [Cmaj7] mars
i don't [Am7] know if you knew that
oh [G] we'd stay up late playing [D] cards henri winterman [Cmaj7] cigars
though she [Am7] never told me her [C] name
i still [D] love you the girl from [G] mars

[G] surging through the [D] darkness [C] over the [Am7] moonlight strand
[C] electricity [D] in the [G] air
[G] twisting all [D] through the [C] night on the [Am7] terrace
[C] now that [D] summer is [G] here
[G] i know that [D] you are [C] almost in [Am7] love with me
i can [C] see it [D] in your [G] eyes
[G] strange light shim [D] mering [C] over the [Am7] sea tonight
[C] and it almost [D] blows my [Am7] mind
[C] and as i [D] look to the [G] stars

[G] i remember the [D] time i knew a girl from [Cmaj7] mars
i don't [Am7] know if you knew that
oh [G] we'd stay up late playing [D] cards henri winterman [Cmaj7] cigars
though she [Am7] never told me her [C] name
i still [D] love you the girl from [G] mars

middle 8
[G] [D] [C] [Am7]

[G] today i [D] sleep in the [C] chair by the [Am7] window
it [C] felt as if [D] you'd re [G] turned
[G] i thought that [D] you were [C] standing [Am7] over me
when i [C] woke there was [D] no-one [Am7] there
i still [C] love you [D] girl from [G] mars

[G] do you remember the [D] time i knew a girl from [Cmaj7] mars
i don't [Am7] know if you knew that
oh [G] we'd stay up late playing [D] cards henri winterman [Cmaj7] cigars
though she [Am7] never told me her [G] name
[G] do you remember the [D] time i knew a girl from [Cmaj7] mars
i don't [Am7] know if you knew that
oh [G] we'd stay up late playing [D] cards henri winterman [Cmaj7] cigars
and [Am7] i still dream of [C] you
i still [D] love you the girl from [G] mars

boo
-------------------------------------------------------------------------------
Girl From Mars - Ash
-------------------------------------------------------------------------------
Tabbed by: Terence Hall - tezhall
Email: tez@affordablesupplements.co.uk

Tuning: Standard

Picked this up off the top of my head, not from a CD so it might be in the
totally wrong key...but it's right to my voice when I'm singing along to it...

Not sure of all the words so some of them are ???? or guesses and I don't have
the CD here to get them right now, I'll stick em up as a correction if I can or
if anyone wants to email em to me then feel free....also you'll need to pick up
the strumming and timing for the solo off the CD. (in the solo my keyboard
doesn't have a curvy arrow key for some reason...so the / means a bend just so
you know)

Chorus 1;

e|-0---0---2---1---0--||
B|-2---0---3---2---0--||.
G|-2---1---2---3---1--||
D|-2---2---0---3---2--||.
A|-0---2---0---1---2--||
E|-0---0---x---1---0--||
A E D Bm E

D'you remember the time when you were the girl from mars
I don't know if you knew that

e|-0---0---2---1---0---0---0---2---1---2---0---0--|
B|-2---0---3---2---0---2---0---3---2---3---0---2--|
G|-2---1---2---3---1---2---1---2---3---2---1---2--|
D|-2---2---0---3---2---2---2---0---3---0---2---2--|
A|-0---2---0---1---2---0---2---0---1---0---2---0--|
E|-0---0---x---1---0---0---0---x---1---x---0---0--|
A E D Bm E A E D Bm D E A

Oh we'd stay up late playing cards, Henri Winterman cigars
But she never told me her name
I still love you, the girl from mars

Bridge; (repeated quick strummage)

e|-0--|
B|-2--|
G|-2--|
D|-2--|
A|-0--|
E|-0--|
A

Verse 1; (play 3 times)

e|-0---0---2---1---0--|
B|-2---0---3---2---0--|
G|-2---1---2---3---1--|
D|-2---2---0---3---2--|
A|-0---2---0---1---2--|
E|-0---0---x---1---0--|
A E D Bm E

Sitting in a dreamy daze by the water's edge
On a crisp summer night
???????? from your cigarette

e|-0---0---2---1---0---0---0---2---1---2---0---0--|
B|-2---0---3---2---0---2---0---3---2---3---0---2--|
G|-2---1---2---3---1---2---1---2---3---2---1---2--|
D|-2---2---0---3---2---2---2---0---3---0---2---2--|
A|-0---2---0---1---2---0---2---0---1---0---2---0--|
E|-0---0---x---1---0---0---0---x---1---x---0---0--|
A E D Bm E A E D Bm D E A

The breeze blowing softly on my face
Reminds me of something else
Something that in my memory has been misplaced
And suddenly all comes back
And as I look to the stars


Chorus 2;

e|-0---0---2---1---0--||
B|-2---0---3---2---0--||.
G|-2---1---2---3---1--||
D|-2---2---0---3---2--||.
A|-0---2---0---1---2--||
E|-0---0---x---1---0--||
A E D Bm E

D'you remember the time when you were the girl from mars
I don't know if you knew that

e|-0---0---2---1---0---0---0---2---1---2---0---0--|
B|-2---0---3---2---0---2---0---3---2---3---0---2--|
G|-2---1---2---3---1---2---1---2---3---2---1---2--|
D|-2---2---0---3---2---2---2---0---3---0---2---2--|
A|-0---2---0---1---2---0---2---0---1---0---2---0--|
E|-0---0---x---1---0---0---0---x---1---x---0---0--|
A E D Bm E A E D Bm D E A

Oh we'd stay up late playing cards, Henri Winterman cigars
But she never told me her name
I still love you, the girl from mars

Bridge; (repeated quick strummage)

e|-0--|
B|-2--|
G|-2--|
D|-2--|
A|-0--|
E|-0--|
A

Solo; (all on top e string, listen to CD for the timing on the notes)

e|-0-0-2-2-4-4-5-5-5-0-2-2-2-2-10-9-7-9-7-0-0-2-2-4-4-5-5-5-0-2-2-2-2-10-12-9-10-9-12-10-9-12-10-9|

e|-12-10-9-12-10-9-10-9-7-10-9-7-10-9-7-10-9-7-9-8-7-9-8-7-9-8-7-9-8-7-2-2-4-5-4-5-7/8-5-4-2-0-2-4|

e|-5-4-5-7/8-9-7-5-7-7|

Verse 2;

e|-0---0---2---1---0---0---0---2---1---2--P--0--P--0--|
B|-2---0---3---2---0---2---0---3---2---3--A--0--A--2--|
G|-2---1---2---3---1---2---1---2---3---2--U--1--U--2--|
D|-2---2---0---3---2---2---2---0---3---0--S--2--S--2--|
A|-0---2---0---1---2---0---2---0---1---0--E--2--E--0--|
E|-0---0---x---1---0---0---0---x---1---x--!--0--!--0--|
A E D Bm E A E D Bm D E A

Today I sleep in the chair by the window
It felt as if you'd returned
I thought that you were standing over me
When I woke there was no-one there......(PAUSE)
I still love you, the girl from....(PAUSE)
Mars

Chorus 3; (play 4 times)

e|-0---0---2---1---0--||
B|-2---0---3---2---0--||.
G|-2---1---2---3---1--||
D|-2---2---0---3---2--||.
A|-0---2---0---1---2--||
E|-0---0---x---1---0--||
A E D Bm E

D'you remember the time when you were the girl from mars
I don't know if you knew that

Oh we'd stay up late playing cards, Henri Winterman cigars
But she never told me her name

Outro;

e|-0---0---2---1---0---0---0---2---1---2---0---0--|
B|-2---0---3---2---0---2---0---3---2---3---0---2--|
G|-2---1---2---3---1---2---1---2---3---2---1---2--|
D|-2---2---0---3---2---2---2---0---3---0---2---2--|
A|-0---2---0---1---2---0---2---0---1---0---2---0--|
E|-0---0---x---1---0---0---0---x---1---x---0---0--|
A E D Bm E A E D Bm D E A

D'you remember the time when you were the girl from mars
I don't know if you knew that

Oh we'd stay up late playing cards, Henri Winterman cigars
But I still dream of you
I still love you the girl from mars
#----------------------------------PLEASE NOTE---------------------------------#
#This file is the author's own work and represents their interpretation of the #
#song. You may only use this file for private study, scholarship, or research. #
#------------------------------------------------------------------------------##
Girl From Mars
Ash

Intro/Chorus:
------------------
------------------
-----9-x-7--------
-7-7-9-x-7-9-9----
-7-7-7-x-5-9-9----
-5-5-------7-7----

Bridge:
------------------
------------------
------------------
-7-7-7-7----------
-7-7-7-7----------
-5-5-5-5----------

Verse:
------------------------------------
------------------------------------
-----9-x-7------7-7-7-9-9-9---------
-7-7-9-x-7-9-9--7-7-7-9-9-9---------
-7-7-7-x-5-9-9--5-5-5-7-7-7---------
-5-5-------7-7----------------------

Thomas Horan