Ash — Im Gonna Fall

На этой странице Вы можете ознакомиться с 2 версиями подбора аккордов для гитары к песне "Im Gonna Fall" группы (исполнителя) "Ash".

im gonna fall by ash,ultimate-guitar.com


im gonna fall
by:ash
tabbed by:Aaron Rodriguez

intro
e|-----o-----0-----1-0---1-0---1-0-----0-----0-----1-0---1-0---1-0|
b|-0-2---0-2---0-2-----0-----0-----0-2---0-2---0-2-----0-----0----|[+1]
g|----------------------------------------------------------------|
d|----------------------------------------------------------------|
a|----------------------------------------------------------------|
e|----------------------------------------------------------------|

e|-----0-----0-----0-----0-----0|
b|-0-2---0-2---0-2---0-2---0-2--|
g|------------------------------|
d|------------------------------|
a|------------------------------|

[+1]=do it one more time
e|------------------------------|
I'm Gonna Fall
By: Ash
Tabbed by: Peter Nygaard

Intro


e|---0-2---0-2---0--32---32---32----0-2---0-2---0--32---32---32--|
b|--3-----3-----3------0-----0-----3-----3-----3------0----0-----|
g|---------------------------------------------------------------|
d|---------------------------------------------------------------|
a|---------------------------------------------------------------|
e|---------------------------------------------------------------|


e|---0-2---0-2---0--32---32---32----0-2---0-2---0--32---32---32--|
b|--3-----3-----3------0-----0-----3-----3-----3------0----0-----|
g|---------------------------------------------------------------|
d|---------------------------------------------------------------|
a|---------------------------------------------------------------|
e|---------------------------------------------------------------|


e|---0-2--0-2--0-2--0-2--0-2---|
b|--3----3----3----3----3------|
g|-----------------------------|
d|-----------------------------|
a|-----------------------------|


e|-----9---7--5-----3----|
b|--45---34-23-20-01-----|
g|-----------------------|
d|-----------------------|
a|-----------------------|


(Repeated a lot during the song)