Ash — Jack Names The Planets

На этой странице Вы можете ознакомиться с 3 версиями подбора аккордов для гитары к песне "Jack Names The Planets" группы (исполнителя) "Ash".

Song Title: Jack Names the Planets
Artist: Ash
----------------------------------------------

BASS TAB Written by: Jeff Mitchell (remitch@ix.netcom.com) & Joel Ribble

Jack Names the Planets by Ash

1st VERSE:

G------------------------------- Play 12 times after Lead guitar solo
D-------------------------------
A-------------------------------
E-0-0-0-7-7-7-7-7-0-0-0-5-5-5-5

CHORUS:

G----------------------- Play 3 times
D-----------------------
A-----3-3-3-------5-5-5-
E-3-3-------5-5-5-------

G---------------------
D---------------------
A-6---------8---------
E---6-6-6-6---8-8-8-8-

2nd & 3rd verse

G------------------------------- Play 8 Times
D-------------------------------
A-------------------------------
E-0-0-0-7-7-7-7-7-0-0-0-5-5-5-5-

CHORUS:

G----------------------- Play 3 times
D-----------------------
A-----3-3-3-------5-5-5-
E-3-3-------5-5-5-------

G--------------------- 2nd verse play once
D--------------------- 3rd verse play 4 times
A-6---------8---------
E---6-6-6-6---8-8-8-8-
#----------------------------------PLEASE NOTE---------------------------------#
#This file is the author's own work and represents their interpretation of the #
#song. You may only use this file for private study, scholarship, or research. #
#------------------------------------------------------------------------------##
Date: Tue, 29 Aug 1995 18:02:12 +0100
From: (Thomas Horan)
by ASH

VERSE:
e---------------------------
B---------------------------
G-9-9----------9-9----------
D-9-9-9-9-9----9-9--7-7-7-7-
A-7-7-9-9-9----7-7--7-7-7-7-
E-----7-7-7---------5-5-5-5-

CHORUS:
e-------------------------
B-------------------------
G----6--6-6-6----8--8-8-8-
D-6--6--6-6-6-8--8--8-8-8-
A-6--4--4-4-4-8--6--6-6-6-
E-4-----------6-----------

repeat this and then add this bit on the end
e------------------------
B------------------------
G-9----11----------------
D-9-9--11--11-11-11-11---
A-7-9--9---11-11-11-11---
E---7------9--9--9--9----

Thomas Horan




-----------------------------------------------------------------------
__/ __/ __/ __/ __/ __/ __/
(oo) (o-) (@@) (xx) (--) ( ) (OO)
//|| //|| //|| //|| //|| //|| //||
bug bug bug/w dead bug blind bug after
winking hangover bug sleeping bug seeing a
female
thos@itco.ie bug
-----------------------------------------------------------------------
Band - ASH
Song - JACK NAMES THE PLANETS
Tabbed by - STEVE Q (punkguitarist01)
Good Song, this is the way I play it. Please give it a rating

X - Scratch
b - Bend

Intro
E----------------------------
B----------------------------
G-9-9-----------9-9---------- x5
D-9-9--999-9-9--9-9--777-7-7-
A-7-7--999-9-9--7-7--777-7-7-
E------777-7-7-------555-5-5-

End of intro

E----------------------------
B----------------------------
G-9-9-----------9-9---------- x1
D-9-9--999-9-9--9-9-7XXXX----
A-7-7--999-9-9--7-7-7XXXX----
E------777-7-7------5XXXX----

Verse

E---------
B---------
G---9-9--- x3
D---9-9---
A---7-7—--
E---------

Pre - bridge

E----------------
B-----9----------
G-------9-------- x1
D---------9------
A----------------
E----------------

Bridge

E---------------------------
B---------------------------
G-9-9----------9-9---------- x3
D-9-9-9-9-9----9-9--7-7-7---
A-7-7-9-9-9----7-7--7-7-7---
E-----7-7-7---------5-5-5---

E---------------------------
B---------------------------
G-9-9----------9-9---------- x1
D-9-9-9-9-9----9-9—7XXXX----
A-7-7-9-9-9----7-7-7XXXX----
E-----7-7-7--------5XXXX----

Chorus

E-------------------------
B-------------------------
G----6--6-6-6----8--8-8-8-
D-6--6--6-6-6-8--8--8-8-8- x3
A-6--4--4-4-4-8--6--6-6-6-
E-4-----------6-----------

E------------------------
B------------------------
G-9----11----------------
D-9-9--11-11—XXXX-------- x1
A-7-9---9-11—XXXX--------
E---7------9—XXXX--------

Verse
Pre - Bridge
Bridge
Chorus

Solo

E----------------------------------------------
B-1/9-9-9---------------------9-9----------10--
G--------11-----9--------9-------11------9-----
D----------11-11--11-9-7--7-6------11-11-------
A----------------------------------------------
E----------------------------------------------

E-------------------------------------------
B-9-9---------------------------------------
G----11-----9-------9-----7-----------------
D------11-11--11-9-7-7-6-7-7-6--------------
A-----------------------------7-5-----------
E--------------------------------7-5-3b-0---

Chorus
Verse
Pre - Bridge
Bridge
Chorus

Outro: E------------
B------------
G-9----11---- X4 (play last chord again to end and let ring)
D-9-9--11-11—
A-7-9---9-11—
E---7------9—