Ash — Lost In You

#----------------------------------PLEASE NOTE---------------------------------#
#This file is the author's own work and represents their interpretation of the #
#song. You may only use this file for private study, scholarship, or research. #
#------------------------------------------------------------------------------#
#

Date: Sun, 14 Dec 1997 10:34:51 -0500 (EST)
From: wbknox@unity.ncsu.edu
To: guitar@olga.net
Subject: TAB: Lost_in_You.tab by Ash

Song: Lost In You
Band: Ash
Album: 1977
Written by Tim Wheeler
Transcribed by Luke Knox (lukeknox@iname.com)

This is my version, and I invite you to try this version out, and e-mail
me with any comments, suggestions, etc.

Intro:
(The low part is played on another guitar, but can be played on one
guitar fairly easily. Just listen to the CD for rhythym)
E---5---4---2---0----3---2---0------------------------------
B--------------------------------3---5---5---3--0----0-0-0-0
G----------------------------------------------------2-2-1-1
D----------------------------------------------------2-2-2-2
A-0---0---0---0--------------------2---2---2----------------
E------------------3---3---3---3------------------0---------

(This is played twice. Then the verse goes like this:)
A A7 Em
Lying wide awake under strange skies. Wanting to call you,
Bm
but it is late at night.
E A D
And you're far away, but you are
Bm Dm A A7
Always on my mind. I feel like I'm on fire, nothing I can
Bm Dm
do. I'm troubled with doubt, though I know it is not true.
E A D
And it's times like these when I am
Bm Dm A
Dying to speak to you. I'm dying to get through.
Bm Dm A
I'm dying to speak to you. Dying to get through.
Bm Dm
I'm dying to speak to you.

Riff:
E--------------------(0)-
B-2s3----------------(2)-
G-----2s4--2-1-------(2)-
D---------------4s2--(2)-
A--------------------(0)-
E------------------------

A
A7 Em
Staring at the world, I sink inside. I'm thinkin bout it
Bm
all, I get caught up in my life.
E A D
I can't think straight, because it's
Bm Dm A A7
Tearing up my mind. I feel like I'm on fire, nothing I can
Bm Dm
do. I'm troubled with doubt, though I know it is not true.
E A D
And it's times like these when I am
Bm Dm
Dying to speak to you, dying to get through
E(7)
dying to get through.
F#m A F#m A
The more I think, the more I need you. The more I think,
A-G#-G
the more it seems true. And now it means more than I
Bm Dm E
ever meant it to, ever meant it to.

Solo:
E------------------------------------------------0---------
B-----------------2----2s3-3-2-3-2s3-3-2-3---------3-2-----
G--2-4-4-2-4r-2-4---4r---------------------4-4-2-------4-2-
D----------------------------------------------------------
A----------------------------------------------------------
E----------------------------------------------------------

E------------------------------------------
B-----------2s3-3-2-3---2-3----------------
G--4s6-4-6------------------2s4-2-1--6s4---
D------------------------------------------
A------------------------------------------
E------------------------------------------

Key Change (some of this I'm not too sure about, but I am
sure of the chorus being right.)
B B7 F#m
Lying wide awake under strange skies. Wanting to call you,
C#m
but it is late at night.
F# B E
And you're far away, but you are
C#m Em B
Always on my mind. You are always on my mind.
C#m Em B
You are always on my mind, you are always on my mind.
C#m Em B
You are always on my mind, you are always on my mind.
C#m Em B
You are always on my mind.

The end. Hope you like it!

Luke