Ash — Orpheus

На этой странице Вы можете ознакомиться с 3 версиями подбора аккордов для гитары к песне "Orpheus" группы (исполнителя) "Ash".

Artist: Ash
Album: Meltdown
Song: Orpheus

Intro part 1 (played quickly)
e----------------------------------|
B----------------------------------|
G----------------------------------|
D----------------------------------| play 4 times (use distortion)
A-7-5-7-5h7-7-5-7-5-7-{5-7-5-------|
E---------------------{------7-5-0-|

(played quickly)
e----------------------------------|
B----------------------------------|
G----------------------------------|
D-9-7-9-7/9-9-7-9-7-9--------------| play 4 times (use phaser)
A-7-5-7-5/7-7-5-7-5-7-{5-7-5-------|
E---------------------{------7-5-0-|

Main riff
e-------------------|
B-------------------|
G-------------------|
D-9-7-7/9-94-------| play 4 times (use distortion)
A-7-5-5/7-72-------|
E-------------3-2-0-|

Verse
e----------------------------------------------------|
B----------------------------------------------------|
G----------------------------------------------------|
D-9-9-9-9-9-9-------97-7-7-7-7-14-14-14-14p12-------| played 4 times
A-7-7-7-7-7-7-5-4-2-75-5-5-5-5----------------14-12-|
E----------------------------------------------------|


The chorus is basically
F#m B
A E
C#m B
A B


That's it bar a few little bits which are already tabbed here. Any corrections, please
me at el_capitano00@yahoo.co.uk. Chow...
Orpheus
Ash

tabbed by Joe Weissman
mynameisjoe66@hotmail.com

E7
That summer I did nothing
Just sleeping, thinking and hanging around
Left the dark streets of September
As the air was cooling down
Woah yeah it was cooling down

F#m B
I need the sunshine in the morning
A E
I'm heading for the open road
C#m B
Sunshine in the morning
A B
Lord you gotta let it flow

E7
Ever since I lost her
Seems the more I learn, the less I know
Everyday I think about her
But if I look back I'll turn to stone
To stone, woah yeah gonna turn to stone

F#m B
I need the sunshine in the morning
A E
I'm heading for the open road
C#m B
Sunshine in the morning
A B
Lord you gotta let it flow

F#m B
I need the sunshine in the morning
A E
Yeah I gotta feel its glow
C#m B
Sunshine in the morning
A B
Lord you gotta let it flow

E
Im heading for the open road x8

E7
It hit me without warning
I was left out on my own
The sad times they were forming
I went through them alone

A new day it is dawning
I feel the pain is gone
The open world is calling
And I am moving on

F#m B
I need the sunshine in the morning
A E
I'm heading for the open road
C#m B
Sunshine in the morning
A B
Lord you gotta let it flow

F#m B
I need the sunshine in the morning
A E
Yeah I gotta feel its glow
C#m B
Sunshine in the morning
A B
Lord you gotta let it flow
Band - Ash
Song - Orpheus
Album - Meltdown
Tuning - Standard

Intro part 1 - Both Guitars

e:----------------------------------:
b:----------------------------------:
g:----------------------------------:
d:----------------------------------:
a:-7-5-7-5-7-5-7-5-7-5-7-5----------: x how many time
E:-------------------------7-6-5-3--:

Intro Part 2 - Both Guitars

e:-----------------------:
b:-----------------------:
g:-9-7---7-9-9~----------: Repeat as many times needed
d:-9-7-9-7-9-9~-7-5-4-2--:
a:-7-5-9-5-7-7~-7-5-4-2--:
E:-----7--------5-3-2-0--:

Think thats it, Email me with corrections
Doms_BeerCo@Hotmail.com