Ash — Shining Light

На этой странице Вы можете ознакомиться с 8 версиями подбора аккордов для гитары к песне "Shining Light" группы (исполнителя) "Ash".

Ash  Shining Light.
Tabbed by BC motownjunk2002@hotmail.com.

Used chords:

E B G D A E

D) 10 10 11 12 12 10
G) 10 12 12 12 10 10
Bm) 7 7 7 9 9 7
F#m) 2 2 2 4 4 2
G*) 3 3 4 5 5 3
A) 5 5 6 7 7 5

Verse 1:

D G
All the candles that burn in the night
Bm G D
Yeah you are a shining light
D G
You lit a torch in the ?
Bm G D
Yeah you are a shining light
Bm G D
Yeah you light up my life

Verse 2:

You have have always been a thorn in the side
But to me you're a shining light
You arrive and the night is alive
Yeah you are a shining light
Yeah you light up my life

Chorus:-

D Bm
We made a connection
F#m G
A full chemical reaction
F#m G
But by dark divine intervention
A
Yeah you are a shining light
D Bm
A constelation once seen
F#m G
Over royal Davids city
F#m G
An epiphany it burns so clearly
A
Yeah you are a shining light

Verse 3:-

You are a force you are a constant sourse
Yeah you are a shining light
You came dancing in the darkest night
Yeah you are a shining light
Yeah you light up my life

Chorus
Solo
Chorus



:: Ultimate Guitar Archive ::
http://www.ultimate-guitar.com
Ash:Shining light
Tabbed by Glynny

VERSE
G C D
g--------------------------------
d--------------------------------
a-----------3-3-3-3-3-5--5--5--5-
e-3-3-3-3-3----------------------

E C B G
g---------------------------------
d---------------------------------
a-7----3---3-----2--2-------------
e------------------------3--------

G
g---------------------------------
d---------------------------------
a---------------------------------
e-3--3-3--3-3--3-3--3-3-3---------

CHORUS
D C B G X2
g-------------------------------------------------
d-------------------------------------------------
a-5-5-5-5-5-5-3-3-3-3-3-3-2-2-2-2-2-2-------------
e-------------------------------------3-3-3-3-3-3-
E D B G
g-------------------------------------------------
d-------------------------------------------------
a-7-7-7-7-7-7-5-5-5-5-5-5-2-2-2-2-2-2-------------
e-------------------------------------3-3-3-3-3-3-
C B G X2
g--------------------------------
d--------------------------------
a------3-----3---2---2-----------
e------------------------3-------
G
g--------------------------------
d--------------------------------
a--------------------------------
e-3--3-3--3-3--3-3--3-3-3--------

BRIDGE
B E B E
g---------------------------------
d---------------------------------
a-2-2-2/7-7-7---2-2-2/7-7-7--etc--
e---------------------------------

Then there's a load of sliding and bending on the top 2 strings

KEY-CHANGE CHORUS
E D C# A X2
g-------------------------------------------------
d-------------------------------------------------
a-7-7-7-7-7-7-5-5-5-5-5-5-4-4-4-4-4-4-------------
e-------------------------------------5-5-5-5-5-5-
F# E C# A
g-------------------------------------------------
d-------------------------------------------------
a-9-9-9-9-9-9-7-7-7-7-7-7-4-4-4-4-4-4-------------
e-------------------------------------5-5-5-5-5-5-
C# D A X3
g---------------------------------
d---------------------------------
a------4---4-----5--5-------------
e-------------------------5-------


VERSE X4
CHORUS X2
VERSE X2
CHORUS X2
BRIDGE
KEY-CHANGE CHORUS X2

THATS ABOUT IT
#----------------------------------PLEASE NOTE---------------------------------#
#This file is the author's own work and represents their interpretation of the #
#song. You may only use this file for private study, scholarship, or research. #
#bla bla bla bla bla. crap. legal crap. tabs are evil. but feel free to download#
#mp3s. #
#------------------------------------------------------------------------------##

Band: Ash
Song: Shining Light
Yehawwwww!

I wanted this tab. Noone tabed it. I tried. (I cried.) I really did. This is what
came out. I know its not right. well.. I know its actually comepletely wrong.
But atleast it'll give you an idea. ...or something.

intro:
E--------------|
B-----7-7-8-7--|
G-----7-7-7-7--|
D--------------|
A---5----------| then B5, G5, D5 you'll get it
E--------------|


verse = intro
intro = verse

chorus = ?????????


thats it.


--------------------------------

http://www.geocities.com/weeza666 -. Yes, thats a geocities website.
Please host me. lol
Song: Shining Light
Band: Ash
Album: Free all angels
By: Dan

Tab:

| | = 1 bar
h= hammer
b= bend
/= slide
Chords:
E a d g b e
D 10 12 12 11 10 10
G x 10 12 12 12 10
Bm 7 9 9 7 7 7
D* x 5 7 7 7 5
Bm* x 2 4 4 3 2
G* 3 5 5 4 3 3
F#m 2 4 4 2 2 2
A 5 7 7 6 5 5
Bmaj/min x 2 4 3 3 2
Bm7 x 2 4 2 3 2
Bm7/6 x 2 4 2 3 4
Em 0 2 2 0 0 0
A* x 0 2 2 2 0


Intro and Verses 1 and 2:

| D | G D G D | Bm G | D |

Fill: ( play after 2 lines of the intro in the first verse, but not
in the second verse. Also play it before the chorus in both verses)

| Bm G | D |

Chorus:

| D* | Bm* | F#m | G* | F#m | G | A |


Verse 3:

| Bm* | Bmaj/min | Bm7 | Bm7/6 | Em | A | Em | A |

| Bm* | Bmaj/min | Bm7 | Bm7/6 | Em | A | G* | A |

Solo: (played over chorus chords)

e------------------------------------------------------------------|
b------------------------------------------------------------------|
g-11/2-----------------------------------2---2-------------2-----2-|
d------/12/2/4-4/2-2/4-9-9-7---------2/4---4---4-2/4---4-2-2-4-2---|
a----------------------------2-2-2-0-----------------0-----0-------|
E------------------------------------------------------------------|

e------------------------------------------------------------|
b------------------------------------------------------------|
g------------------------------2---2-4-4b5-4b5-4b5-4-2-------|
d-14/16-16/14-14/16-16-16/-2-4---4---------------------4-2-2-|
a------------------------------------------------------------|
E------------------------------------------------------------|
--
e---------------------------------------------------------------|
b-/7-7-7-7p5----------------------------------------------------|
g------------6-6p4-4b5-4-4-2-2-2-2/4-4/2-2/17-------------------|
d----------------------------2-2--------------------------------|
a----------------------------0-0--------------------------------|
E---------------------------------------------------------------|

The last chorus is the same as the others but the the chords are
played 1 semi-tone higher ( 1 fret) so D becomes D# etc.

Enjoy Dan
A realy cool song from ASH!!
This tab is really close to the way ASH play it If not exactly!


Cappo 7

Intro
G C G em C G (x2)

G C G em C G
e----3--3--3--3-------------3-3-------------------------------3--3-|
b-----------------1--3--1-----------------------------1-1-1--------|
g------------------------------------------------------------------|
d-----------------2--2--2----------------2--2--2--2---2-2-2--------|
a----2--2--2--2---3--3--3---2-2---0--0---2--2--2--2---3-3-3---2--2-|
E-3--3--3--3--3-------------3-3---2--2------------------------3--3-|


Repeat that for the whole verse

At the end of verse it goes:

em C G
e-------------------3-|
b------------1--1-----|
g---------------------|
d--2--2--2---2--2-----|
a--2--2--2---3--3---2-|
E-------------------3-|


The chords for the chorus are:

G---bm---f#m---C---bm---C---D

And then back to the verse - Simple!!
E--------------3-3-3-----------2-2--3-3----------------------------------------
B-----7-7-7-7--3-3-3-7---------3-3--3-3--7---7-7-7-7-7-7-7-7-------------------
G-----7-7-7-7--4-4-4-7---------4-4--4-4--7---7-7-7-7-7-7-7-7-------------------
D-----7-7-7-7--5-5-5-7--0-0-0--4-4--5-5--7---7-7-7-7-7-7-7-7-------------------
A-5---5-5-5-5--5-5-5-5---------2-2--5-5--5---5-5-5-5-5-5-5-5------X-2----------
E--------------3-3-3-----------2-2--3-3----------------------------------------

ENJOY!!!!!!!!
The site didnt have a decent sounding tab on this, so heres my attempt - 


-----2--2--5--2--2-----7--2--2--2--------------------
-----3--0--0--0--3-----5--3--3--3--------------------
-----2--------------4--------0--0--------------------
--2-----------------4--------------------------------
--0-----------------4--------------------------------
--0-----------------2--------------------------------
-----------------------------------------------------

the rhythym and the number of strums is pretty easy to work out, quite patheticaly
simple actualy, so it should take u more than 2 mins.


any comments, death threats or corrections to - clangerfreak@hotmail.com

~*jinxx*~
#----------------------------------PLEASE NOTE--------------------------------#
#This file is the author's own work and represents their interpretation of the#
#song. You may only use this file for private study, scholarship, or research.#
#-----------------------------------------------------------------------------#
#-- File created with Instab - http://www.pconline.com/~smcarey/instab.html --#
#-----------------------------------------------------------------------------#

Author/Artist: Ash
Title: Shining Light
Album: Free All Angels
Transcribed by: Robin
Email: rsih2001@hotmail.com

-145-102-0-2-2b/7-7-5-0-----------------------------------------------------|
------------------------------------------------------------------------------|
--------------------------2-------------------2-2-2-2-2-2-2-2-2b-2b/42-2/9---|
----------------------------2-4-4-7-4-2-4---4-2-2-2-2-2-2-2-2-----------------|
------------------------------------------0---0-0-0-0-0-0-0-0-----------------|
------------------------------------------------------------------------------|
b=Bend String up /=Slide Up =Slide Down.Play the A5 about 16 times.