Ash — Sometimes

На этой странице Вы можете ознакомиться с 3 версиями подбора аккордов для гитары к песне "Sometimes" группы (исполнителя) "Ash".

ash,sometimes.
Tabbed by duffy,celticdahoopz@aol.com.

this is the riff at the intro and i think you'll find it is similar to 'burn baby burn'

e9----9-----9-----9----9h10--9----9----9----9----9h10
b--10---10----10----10---------10---10---10---10-----
g----------------------------------------------------
d----------------------------------------------------
a----------------------------------------------------
e----------------------------------------------------

now the solo comes in

e/----------------------------------------------------
b/---9-7-6-6-6-6-6------9-7-6-6-6-6b---9-7-6-6-6-6-6--
g/-9---------------6--9--------------9---------------6
d/----------------------------------------------------
a/----------------------------------------------------
e/----------------------------------------------------

g/-6b
d/----7

a f#m c#m7 a
cant sleep in the city,you're far away
a f#m c#m7 a
cigarettes keep you skinny,and youre mind off the rain
f#m c#m7 a
sometimes,sometimes
f#m c#m7 a
oh sometimes,sometimes

keep repeating this for every verse in the song

and the chorus chords are like this

e........dmaj7....e..........a
e........dmaj7....e..........a

listen 2 the song and you'll get the hang of it
:: Ultimate Guitar Archive ::
http://www.ultimate-guitar.com
hello, here are the chords, took me ages to figure them out.

A 577655
F# 244322
C# 799877


they go like this:
A F# C# A
can sleep in the city 'cos your far away

here are the lyrics:

can sleep in the city 'cos your far away
cigarettes keep you skinny and your mind off the rain
sometimes sometimes
sometimes sometimes

feelings are distant. i know guilt by name
it was the hardest thing watching u slip away
sometimes sometimes
sometimes sometimes

(kick in distortion here)
sometimes it happens feelings die
whole years are lostin the blink of an eye
we once had it all but are thoughts conspire
sometimes

good morning sweet thing, your safe in my hands
im no saint but i understand
sometimes sometimes
sometimes sometimes

(kick in distortion here)
sometimes it happens feelings die
whole years are lostin the blink of an eye
we once had it all but are thoughts conspire
sometimes
now that it is over it is through
it gets me every time i think of you
sometimes it happens feelings die
sometimes

i miss your warm skin beside me at night
i miss your flesh in the dawn light
sometimes sometimes
sometimes sometimes

sometimes it happens feelings die
whole years are lostin the blink of an eye
we once had it all but are thoughts conspire
sometimes
saturns'decline on my star sign
seasonal adjustments, stars realign
sometimes it happens feelings die
sometimes sometimes

thats it
enjoy:o)

email me with comments etc. @ Barry_fallon2000@hotmail.com
Artist: 	Ash
Album: Free All Angels
Track: Sometimes (Intro.)
Tabbed by: Jon Purslove (coldpoy@hotmail.com)

This song is the next release from the Free All Angels album, I figured
out the intro. Riff I don't know the rest, anyone who finds out the
chords will win a mystery star prize!! Contact me if anyone knows the
chords, anywho the intro. Starts with some clean guitar picking I don't
know the chord but I think its around A when played an octave up.

e---------------------------------------------------------------------------------------------------|
B--------14-------14------------14-------15h14------------------------------------------------------|
G---14-------14------------14-------14-----------14-------------------------------------------------|
D---------------------------------------------------------------------------------------------------|
A---------------------------------------------------------------------------------------------------|
E---------------------------------------------------------------------------------------------------|

Play this twice and then just before the second clean riff finishes
the distorted guitar comes in (again, listen to the CD for the
correct timing):

e------0-------------------------0----------------------------0-------------------------------------|
B--------3--2--2-2-2-2-----------3--2--2-2-2-2-2b-2--------3--2--2-2-2-2----2-2h3h2-----------------|
G--2----------------------1--2----------------------------2---------------------1---------22-42-----|
D---------------------------------------------------------------------------------------------------|
A---------------------------------------------------------------------------------------------------|
E---------------------------------------------------------------------------------------------------|

Listen to the track for proper timing, this sounds good enough
obviously you can play it elsewhere on the fret board but it'll
still sound da same.

Cheers, any comments, questions, abuse, prize claims to
coldpoy@hotmail.com

farewell.