Ash — Starcrossd

На этой странице Вы можете ознакомиться с 2 версиями подбора аккордов для гитары к песне "Starcrossd" группы (исполнителя) "Ash".

BAND - Ash
SONG - Starcross'd
ALBUM - Meltdown

CHORDS
C G Fmaj7 Am Fm/maj7 Em Dm
E|------0------3-------------0------1------0------1------|
B|------1------0------1------1------1------0------3------|
G|------0------0------2------2------1------0------2------|
D|------2------0------2------2------2------2------0------|
A|------3------2------X------0------3------2-------------|
E|-------------3------1-------------1------0-------------|

INTRO
C G Fmaj7
Am G Fmaj7

VERSE 1
Fmaj7
Behold this night, still and clear
Fmaj7 C
You look here just like an angel sleeping
Fmaj7
I wish I could ease your fears
Fmaj7 C
I would catch the diamond tears you're weeping
Am
In your eyes I would hide
Fmaj7
By your side I could defy
Em Fm/Fmaj7
The forces tearing us apart
Fmaj7
But reality, as it seems
C
Looking back, is that our dream
Dm G
Was fated from the start


CHORUS
C G F
Girl we're starcrossed and can't escape
C G F
We're condemned and can only wait
C G Dm
At this time now it's far too late
Em F G
To save us from our fate


VERSE II
Fmaj7 Fmaj7
I'll remain in your hold, Body, mind, heart and soul
C
As long as I breathe
Fmaj7 Fmaj7
Though consequence takes its toll, All is out of our control
C
That's how it will be
Am
So close your eyes my young bride
Fmaj7
Listen to me one last time
Em Fm/Fmaj7
There's something I have to say
Fmaj7
When your faith turns to despair
C
Always will my love be there
Dm G
And never fade away

2nd CHORUS
C G F
Girl we're starcrossed and can't escape
C G F
We're condemned and can only wait
C G Dm
At this time now it's far too late
Em F G
To save us from our fate

Em Fmaj7
You can't save us
Em
You can't save us

MIDDLE
Am G Fmaj7
Am G Fmaj7

FINAL CHORUS
C G F
Girl we're starcrossed and can't escape
C G F
We're condemned and can only wait
C G Dm
At this time now it's far too late
Em F G
The poison's in our veins
C G Fmaj7
It's true.......
C G Fmaj7
You know that I'd die for you.......
C G Fmaj7
You know that I'd die for you.......
Am G D C
You know that I'd die for you.......
Tabbed by ready2rock

Intro.

I only have the live version so i'm not sure whether this guitar 1 bit is on the album.
to 'Pedge'who i copied the chords off of. So Cheers Pedge
Guitar 1 [charlotte hatherly]
the rhythm is a bit different but you can work it out

e|-------------------|
b|--9-10-12--9-10-12-|
g|-10-10-10-10-10-10-| (repeat x9 i think)
d|-------------------|
a|-------------------|
E|-------------------|

Guitar 2 [tim wheeler]

Intro chords played over guitar 1:
C G F
Am G F

VERSE 1
F
Behold this night, still and clear
F C
You look here just like an angel sleeping
F
I wish I could ease your fears
F C
I would catch the diamond tears you're weeping
Am
In your eyes I would hide
F
By your side I could defy
Em F
The forces tearing us apart
F
But reality, as it seems
C
Looking back, is that our dream
Dm G
Was fated from the start


CHORUS
C G F
Girl we're starcrossed and can't escape
C G F
We're condemned and can only wait
C G Dm
At this time now it's far too late
Em F G
To save us from our fate


VERSE II
F F
I'll remain in your hold, Body, mind, heart and soul
C
As long as I breathe
F F
Though consequence takes its toll, All is out of our control
C
That's how it will be
Am
So close your eyes my young bride
F
Listen to me one last time
Em F
There's something I have to say
F
When your faith turns to despair
C
Always will my love be there
Dm G
And never fade away

2nd CHORUS
C G F
Girl we're starcrossed and can't escape
C G F
We're condemned and can only wait
C G Dm
At this time now it's far too late
Em F G
To save us from our fate

Em F
You can't save us
Em
You can't save us


Solo

e|--bu--------------------------------------------------------|
b|--15(17)-12---------15(17)-12-----------------bu------------|
g|-------------15-14------------15-14-14h15--17-17-15p14h15---|
d|------------------------------------------------------------|
a|------------------------------------------------------------|
E|------------------------------------------------------------|

e|--bu--------------------------------------------------------|
b|--15(17)-12---------15(17)-12-----------------bu------------|
g|-------------15-14------------15-14-14h15--17-17-15p14h15---|
d|------------------------------------------------------------|
a|------------------------------------------------------------|
E|------------------------------------------------------------|


MIDDLE
Am G F
Am G F

FINAL CHORUS
C G F
Girl we're starcrossed and can't escape
C G F
We're condemned and can only wait
C G Dm
At this time now it's far too late
Em F G
The poison's in our veins
C G F
It's true.......


Guitar 1 now plays the inro riff again.

C G F
You know that I'd die for you.......
C G F
You know that I'd die for you.......
Am G D C
You know that I'd die for you.......