Ash — Uncle Pat

На этой странице Вы можете ознакомиться с 3 версиями подбора аккордов для гитары к песне "Uncle Pat" группы (исполнителя) "Ash".

#----------------------------------PLEASE NOTE---------------------------------#
#This file is the author's own work and represents their interpretation of the #
#song. You may only use this file for private study, scholarship, or research. #
#------------------------------------------------------------------------------##
Date: Tue, 29 Aug 1995 18:02:10 +0100
From: thos@itco.ie (Thomas Horan)

Here is the chords to Uncle Pat by ASH

B D A E

more to come on the lead part
#----------------------------------PLEASE NOTE---------------------------------#
#This file is the author's own work and represents their interpretation of the #
#song. You may only use this file for private study, scholarship, or research. #
#------------------------------------------------------------------------------##
Date: Tue, 12 Sep 1995 11:34:29 +0100
From: (Thomas Horan)
Uncle Pat - Tab - from the band ASH

---------------------------------------------------------------
-2--4--2-----2--/7--2-----2--4--2-----2---2~--1----------------
----------4------------2-----------4---------------------------
---------------------------------------------------------------
---------------------------------------------------------------
---------------------------------------------------------------


http://www.itco.ie/ash
Thomas Horan
Uncle Pat - ASH

Tabbed by: Brian D.
Email: Zachtung3@aol.com

This is the intro riff and the main riff you hear throughout the song.

e-------------------------------------------------------------------------
B-------------------------------------------------------------------------
G--2--4--4-4--2------------2--6--6-6--2-1-----2--4--4-4--2---------2-2--1-
D-------------------4-----------------------------------------4-----------
A-------------------------------------------------------------------------
E-------------------------------------------------------------------------