Assorted Jelly Beans — Assorted Jelly Beans

Song: Assorted Jelly Beans
Band: Assorted Jelly Beans
Album: Assorted Jelly Beans
tabbed by: Pezman0014

The rest of the song is easy to figure it out so i dont need to tab it.. E-
mail: Pezman0014@aol.com

First Part:
G:--------------------/-------------------------------------------
D:-------------------/--------------------------------------------
A:---4-4-7-7-----/--do this a
lot--------------------------------------------------
E:-5----------4-4/--------------------------------------------------

Second part:
G:---------------------------------------------------------------

D:--------------6-7-9---4-5-7----4-5-7---------------9-7-6---4-5-7----7-5-4---
-----

A:---4-5-7--7---------5---------5-----------7-5-4--7---------5---------5-----
E:-5------------------------------------------5--------------------