Assorted Jelly Beans — Brain Dead

BRAIN DEAD
Assorted JellyBeans
tabbed by AlBino
email : bbfan@bellatlantic.net
tab page: http://www.geocities.com/SunsetStrip/Stage/5367/tab.html



Intro + Chorus
repeat the part before the stars 3 times
G:---------------------------------***--------------------------
D:---------------------------------***-3-3-3-3----------------3-
A:---------5-5-5-5---------3-3-3-3-***---------5-5-5-5--3--5----
E:-1-1-1-1---------3-3-3-3---------***--------------------------


repeat 3X's before stars:
G:---2-5----------------------***---2-5---------------5-3-2---
D:-3--------5-8----2-5----2-5-***-3--------5-8----2-5-------5-
A:--------6------3------3-----***--------6------3-------------
E:----------------------------***-----------------------------



This is most of the song. I'll try to get the rest soon. If you have the
rest tabbed, please send it along with any other tabs, corrections, or
questions you might have to bbfan@bellatlantic.net